  0
SECTION
  2
HEADER
  9
$ACADVER
  1
AC1009
  9
$DWGCODEPAGE
  3
ansi_1252
  9
$INSBASE
 10
0.0
 20
0.0
 30
0.0
  9
$EXTMIN
 10
0.0
 20
0.0
 30
0.0
  9
$EXTMAX
 10
297.0
 20
210.0
 30
0.0
  9
$LIMMIN
 10
0.0
 20
0.0
  9
$LIMMAX
 10
0.0
 20
0.0
  9
$ORTHOMODE
 70
     0
  9
$REGENMODE
 70
     1
  9
$FILLMODE
 70
     1
  9
$QTEXTMODE
 70
     0
  9
$MIRRTEXT
 70
     1
  9
$DRAGMODE
 70
     2
  9
$LTSCALE
 40
1.0
  9
$OSMODE
 70
    37
  9
$ATTMODE
 70
     1
  9
$TEXTSIZE
 40
2.6458333333
  9
$TRACEWID
 40
1.0
  9
$TEXTSTYLE
  7
STANDARD
  9
$CLAYER
  8
0
  9
$CELTYPE
  6
BYLAYER
  9
$CECOLOR
 62
   256
  9
$DIMSCALE
 40
1.0
  9
$DIMASZ
 40
2.5
  9
$DIMEXO
 40
0.1
  9
$DIMDLI
 40
3.75
  9
$DIMRND
 40
0.0
  9
$DIMDLE
 40
0.0
  9
$DIMEXE
 40
1.0
  9
$DIMTP
 40
0.0
  9
$DIMTM
 40
0.0
  9
$DIMTXT
 40
2.6458333333
  9
$DIMCEN
 40
2.5
  9
$DIMTSZ
 40
0.0
  9
$DIMTOL
 70
     0
  9
$DIMLIM
 70
     0
  9
$DIMTIH
 70
     1
  9
$DIMTOH
 70
     1
  9
$DIMSE1
 70
     0
  9
$DIMSE2
 70
     0
  9
$DIMTAD
 70
     1
  9
$DIMZIN
 70
     0
  9
$DIMBLK
  1

  9
$DIMASO
 70
     1
  9
$DIMSHO
 70
     1
  9
$DIMPOST
  1

  9
$DIMAPOST
  1

  9
$DIMALT
 70
     0
  9
$DIMALTD
 70
     3
  9
$DIMALTF
 40
0.0393700787
  9
$DIMLFAC
 40
1.0
  9
$DIMTOFL
 70
     1
  9
$DIMTVP
 40
0.0
  9
$DIMTIX
 70
     0
  9
$DIMSOXD
 70
     0
  9
$DIMSAH
 70
     0
  9
$DIMBLK1
  1

  9
$DIMBLK2
  1

  9
$DIMSTYLE
  2
ISO-25
  9
$DIMCLRD
 70
     0
  9
$DIMCLRE
 70
     0
  9
$DIMCLRT
 70
     0
  9
$DIMTFAC
 40
1.0
  9
$DIMGAP
 40
1.524
  9
$LUNITS
 70
     2
  9
$LUPREC
 70
     1
  9
$SKETCHINC
 40
1.0
  9
$FILLETRAD
 40
10.0
  9
$AUNITS
 70
     0
  9
$AUPREC
 70
     0
  9
$MENU
  1
.
  9
$ELEVATION
 40
0.0
  9
$PELEVATION
 40
0.0
  9
$THICKNESS
 40
0.0
  9
$LIMCHECK
 70
     0
  9
$CHAMFERA
 40
10.0
  9
$CHAMFERB
 40
10.0
  9
$SKPOLY
 70
     0
  9
$TDCREATE
 40
2454627.490660799
  9
$TDUPDATE
 40
2454627.49066081
  9
$TDINDWG
 40
0.0000000116
  9
$TDUSRTIMER
 40
0.0000000116
  9
$USRTIMER
 70
     1
  9
$ANGBASE
 50
0.0
  9
$ANGDIR
 70
     0
  9
$PDMODE
 70
     0
  9
$PDSIZE
 40
-1.0
  9
$PLINEWID
 40
0.0
  9
$COORDS
 70
     1
  9
$SPLFRAME
 70
     0
  9
$SPLINETYPE
 70
     6
  9
$SPLINESEGS
 70
     8
  9
$ATTDIA
 70
     0
  9
$ATTREQ
 70
     1
  9
$HANDLING
 70
     1
  9
$HANDSEED
  5
143
  9
$SURFTAB1
 70
     6
  9
$SURFTAB2
 70
     6
  9
$SURFTYPE
 70
     6
  9
$SURFU
 70
     6
  9
$SURFV
 70
     6
  9
$UCSNAME
  2

  9
$UCSORG
 10
0.0
 20
0.0
 30
0.0
  9
$UCSXDIR
 10
1.0
 20
0.0
 30
0.0
  9
$UCSYDIR
 10
0.0
 20
1.0
 30
0.0
  9
$PUCSNAME
  2

  9
$PUCSORG
 10
0.0
 20
0.0
 30
0.0
  9
$PUCSXDIR
 10
1.0
 20
0.0
 30
0.0
  9
$PUCSYDIR
 10
0.0
 20
1.0
 30
0.0
  9
$USERI1
 70
     0
  9
$USERI2
 70
     0
  9
$USERI3
 70
     0
  9
$USERI4
 70
     0
  9
$USERI5
 70
     0
  9
$USERR1
 40
0.0
  9
$USERR2
 40
0.0
  9
$USERR3
 40
0.0
  9
$USERR4
 40
0.0
  9
$USERR5
 40
0.0
  9
$WORLDVIEW
 70
     1
  9
$SHADEDGE
 70
     3
  9
$SHADEDIF
 70
    70
  9
$TILEMODE
 70
     1
  9
$MAXACTVP
 70
    64
  9
$PLIMCHECK
 70
     0
  9
$PEXTMIN
 10
1.0000000000E+20
 20
1.0000000000E+20
 30
1.0000000000E+20
  9
$PEXTMAX
 10
-1.0000000000E+20
 20
-1.0000000000E+20
 30
-1.0000000000E+20
  9
$PLIMMIN
 10
0.0
 20
0.0
  9
$PLIMMAX
 10
420.0
 20
297.0
  9
$UNITMODE
 70
     0
  9
$VISRETAIN
 70
     1
  9
$PLINEGEN
 70
     0
  9
$PSLTSCALE
 70
     1
  0
ENDSEC
  0
SECTION
  2
TABLES
  0
TABLE
  2
VPORT
 70
     1
  0
VPORT
  2
*ACTIVE
 70
     0
 10
0.0
 20
0.0
 11
1.0
 21
1.0
 12
148.5
 22
105.0
 13
0.0
 23
0.0
 14
10.0
 24
10.0
 15
10.0
 25
10.0
 16
0.0
 26
0.0
 36
1.0
 17
0.0
 27
0.0
 37
0.0
 40
210.0
 41
1.4142857143
 42
50.0
 43
0.0
 44
0.0
 50
0.0
 51
0.0
 71
     0
 72
  2000
 73
     1
 74
     3
 75
     0
 76
     0
 77
     0
 78
     0
  0
ENDTAB
  0
TABLE
  2
LTYPE
 70
     6
  0
LTYPE
  2
CONTINUOUS
 70
     0
  3
Solid line
 72
    65
 73
     0
 40
0.0
  0
LTYPE
  2
HIDDEN
 70
     0
  3
Hidden __ __ __ __ __ __ __ __ __ __ __ __ __ __
 72
    65
 73
     2
 40
1.905
 49
1.27
 49
-0.635
  0
LTYPE
  2
PHANTOM
 70
     0
  3
Phantom ______  __  __  ______  __  __  ______
 72
    65
 73
     6
 40
12.7
 49
6.35
 49
-1.27
 49
1.27
 49
-1.27
 49
1.27
 49
-1.27
  0
LTYPE
  2
CENTER
 70
     0
  3
Center ____ _ ____ _ ____ _ ____ _ ____ _ ____
 72
    65
 73
     4
 40
10.16
 49
6.35
 49
-1.27
 49
1.27
 49
-1.27
  0
LTYPE
  2
CENTERX2
 70
     0
  3
Center (2x) ________  __  ________  __  _____
 72
    65
 73
     4
 40
20.32
 49
12.7
 49
-2.54
 49
2.54
 49
-2.54
  0
LTYPE
  2
DOT2
 70
     0
  3
Dot (.5x) ........................................
 72
    65
 73
     2
 40
0.635
 49
0.0
 49
-0.635
  0
ENDTAB
  0
TABLE
  2
LAYER
 70
     1
  0
LAYER
  2
0
 70
     0
 62
     7
  6
CONTINUOUS
  0
ENDTAB
  0
TABLE
  2
STYLE
 70
     1
  0
STYLE
  2
STANDARD
 70
     0
 40
0.0
 41
1.0
 50
0.0
 71
     0
 42
2.5
  3
txt
  4

  0
ENDTAB
  0
TABLE
  2
VIEW
 70
     0
  0
ENDTAB
  0
TABLE
  2
UCS
 70
     0
  0
ENDTAB
  0
TABLE
  2
APPID
 70
     1
  0
APPID
  2
ACAD
 70
     0
  0
ENDTAB
  0
TABLE
  2
DIMSTYLE
 70
     1
  0
DIMSTYLE
  2
ISO-25
 70
     0
  3

  4

  5

  6

  7

 40
1.0
 41
2.5
 42
0.625
 43
3.75
 44
1.25
 45
0.0
 46
0.0
 47
0.0
 48
0.0
140
2.5
141
2.5
142
0.0
143
0.0393700787
144
1.0
145
0.0
146
1.0
147
0.625
 71
     0
 72
     0
 73
     0
 74
     0
 75
     0
 76
     0
 77
     1
 78
     8
170
     0
171
     3
172
     1
173
     0
174
     0
175
     0
176
     0
177
     0
178
     0
  0
ENDTAB
  0
ENDSEC
  0
SECTION
  2
BLOCKS
  0
BLOCK
  8
0
  2
$MODEL_SPACE
 70
     0
 10
0.0
 20
0.0
 30
0.0
  3
$MODEL_SPACE
  1

  0
ENDBLK
  5
21
  8
0
  0
BLOCK
 67
     1
  8
0
  2
$PAPER_SPACE
 70
     0
 10
0.0
 20
0.0
 30
0.0
  3
$PAPER_SPACE
  1

  0
ENDBLK
  5
1D
 67
     1
  8
0
  0
ENDSEC
  0
SECTION
  2
ENTITIES
  0
LINE
  5
2F
  8
0
  6
CONTINUOUS
 62
     7
 10
142.9217217221
 20
110.4332726106
 30
0.0
 11
142.7217215962
 21
110.4332726106
 31
0.0
  0
LINE
  5
30
  8
0
  6
CONTINUOUS
 62
     7
 10
142.7217215962
 20
110.4332726106
 30
0.0
 11
139.7027351624
 21
113.4522588115
 31
0.0
  0
ARC
  5
31
  8
0
  6
CONTINUOUS
 62
     7
 10
138.288521778
 20
112.0380452342
 30
0.0
 40
2.000000000000006
 50
45.0
 51
90.0
  0
LINE
  5
32
  8
0
  6
CONTINUOUS
 62
     7
 10
138.2885218329
 20
114.0380452277
 30
0.0
 11
134.1619181178
 21
114.0380452277
 31
0.0
  0
ARC
  5
33
  8
0
  6
CONTINUOUS
 62
     7
 10
134.1619179199
 20
113.0380452342
 30
0.0
 40
1.000000000000014
 50
90.0
 51
163.7470682898
  0
LINE
  5
34
  8
0
  6
CONTINUOUS
 62
     7
 10
133.2018819368
 20
113.31792333
 30
0.0
 11
131.9809729896
 21
109.1299709521
 31
0.0
  0
ARC
  5
35
  8
0
  6
CONTINUOUS
 62
     7
 10
132.9410085443
 20
108.8500925921
 30
0.0
 40
1.000000000000025
 50
163.7470682898
 51
241.2529317102
  0
LINE
  5
36
  8
0
  6
CONTINUOUS
 62
     7
 10
132.4600648797
 20
107.9733414233
 30
0.0
 11
136.8317004955
 21
105.5752710097
 31
0.0
  0
LINE
  5
37
  8
0
  6
CONTINUOUS
 62
     7
 10
136.8317004955
 20
105.5752710097
 30
0.0
 11
138.0637201211
 21
104.3432513841
 31
0.0
  0
LINE
  5
38
  8
0
  6
CONTINUOUS
 62
     7
 10
138.0637201211
 20
104.3432513841
 30
0.0
 11
140.4617905348
 21
99.9716157682
 31
0.0
  0
ARC
  5
39
  8
0
  6
CONTINUOUS
 62
     7
 10
141.3385417036
 20
100.4525594329
 30
0.0
 40
0.9999999999999959
 50
208.7470682898
 51
286.2529317102
  0
LINE
  5
3A
  8
0
  6
CONTINUOUS
 62
     7
 10
141.6184200636
 20
99.4925238781
 30
0.0
 11
145.8063724414
 21
100.7134328254
 31
0.0
  0
ARC
  5
3B
  8
0
  6
CONTINUOUS
 62
     7
 10
145.5264943457
 20
101.6734688085
 30
0.0
 40
1.000000000000002
 50
286.2529317102
 51
360.0
  0
LINE
  5
3C
  8
0
  6
CONTINUOUS
 62
     7
 10
146.5264943392
 20
101.6734690063
 30
0.0
 11
146.5264943392
 21
105.8000727214
 31
0.0
  0
ARC
  5
3D
  8
0
  6
CONTINUOUS
 62
     7
 10
144.5264943457
 20
105.8000726666
 30
0.0
 40
2.000000000000028
 50
360.0
 51
45.0
  0
LINE
  5
3E
  8
0
  6
CONTINUOUS
 62
     7
 10
145.940707923
 20
107.214286051
 30
0.0
 11
142.9217217221
 21
110.2332724847
 31
0.0
  0
LINE
  5
3F
  8
0
  6
CONTINUOUS
 62
     7
 10
142.9217217221
 20
110.2332724847
 30
0.0
 11
142.9217217221
 21
110.4332726106
 31
0.0
  0
LINE
  5
40
  8
0
  6
CONTINUOUS
 62
     7
 10
145.940707923
 20
122.3618044175
 30
0.0
 11
142.9217217221
 21
119.3428179838
 31
0.0
  0
ARC
  5
41
  8
0
  6
CONTINUOUS
 62
     7
 10
144.5264943457
 20
123.7760178019
 30
0.0
 40
2.0
 50
315.0
 51
360.0
  0
LINE
  5
42
  8
0
  6
CONTINUOUS
 62
     7
 10
146.5264943392
 20
127.9026214622
 30
0.0
 11
146.5264943392
 21
123.7760177471
 31
0.0
  0
ARC
  5
43
  8
0
  6
CONTINUOUS
 62
     7
 10
145.5264943457
 20
127.90262166
 30
0.0
 40
1.0
 50
360.0
 51
73.7470682898
  0
LINE
  5
44
  8
0
  6
CONTINUOUS
 62
     7
 10
141.6184200636
 20
130.0835665904
 30
0.0
 11
145.8063724414
 21
128.8626576431
 31
0.0
  0
ARC
  5
45
  8
0
  6
CONTINUOUS
 62
     7
 10
141.3385417036
 20
129.1235310356
 30
0.0
 40
1.0
 50
73.7470682898
 51
151.2529317102
  0
LINE
  5
46
  8
0
  6
CONTINUOUS
 62
     7
 10
138.0637201211
 20
125.2328390844
 30
0.0
 11
140.4617905348
 21
129.6044747003
 31
0.0
  0
LINE
  5
47
  8
0
  6
CONTINUOUS
 62
     7
 10
136.8317004955
 20
124.0008194588
 30
0.0
 11
138.0637201211
 21
125.2328390844
 31
0.0
  0
LINE
  5
48
  8
0
  6
CONTINUOUS
 62
     7
 10
132.4600648797
 20
121.6027490452
 30
0.0
 11
136.8317004955
 21
124.0008194588
 31
0.0
  0
ARC
  5
49
  8
0
  6
CONTINUOUS
 62
     7
 10
132.9410085443
 20
120.7259978764
 30
0.0
 40
1.000000000000005
 50
118.7470682898
 51
196.2529317102
  0
LINE
  5
4A
  8
0
  6
CONTINUOUS
 62
     7
 10
133.2018819368
 20
116.2581671385
 30
0.0
 11
131.9809729896
 21
120.4461195164
 31
0.0
  0
ARC
  5
4B
  8
0
  6
CONTINUOUS
 62
     7
 10
134.1619179199
 20
116.5380452342
 30
0.0
 40
1.0
 50
196.2529317102
 51
270.0
  0
LINE
  5
4C
  8
0
  6
CONTINUOUS
 62
     7
 10
138.2885218329
 20
115.5380452408
 30
0.0
 11
134.1619181178
 21
115.5380452408
 31
0.0
  0
ARC
  5
4D
  8
0
  6
CONTINUOUS
 62
     7
 10
138.288521778
 20
117.5380452342
 30
0.0
 40
2.0
 50
270.0
 51
315.0
  0
LINE
  5
4E
  8
0
  6
CONTINUOUS
 62
     7
 10
142.7217215962
 20
119.1428178579
 30
0.0
 11
139.7027351624
 21
116.123831657
 31
0.0
  0
LINE
  5
4F
  8
0
  6
CONTINUOUS
 62
     7
 10
142.9217217221
 20
119.1428178579
 30
0.0
 11
142.7217215962
 21
119.1428178579
 31
0.0
  0
LINE
  5
50
  8
0
  6
CONTINUOUS
 62
     7
 10
142.9217217221
 20
119.3428179838
 30
0.0
 11
142.9217217221
 21
119.1428178579
 31
0.0
  0
LINE
  5
51
  8
0
  6
CONTINUOUS
 62
     7
 10
148.6122807684
 20
107.214286051
 30
0.0
 11
151.6312669693
 21
110.2332724847
 31
0.0
  0
ARC
  5
52
  8
0
  6
CONTINUOUS
 62
     7
 10
150.0264943457
 20
105.8000726666
 30
0.0
 40
2.000000000000006
 50
135.0
 51
180.0
  0
LINE
  5
53
  8
0
  6
CONTINUOUS
 62
     7
 10
148.0264943522
 20
101.6734690063
 30
0.0
 11
148.0264943522
 21
105.8000727214
 31
0.0
  0
ARC
  5
54
  8
0
  6
CONTINUOUS
 62
     7
 10
149.0264943457
 20
101.6734688085
 30
0.0
 40
1.000000000000004
 50
180.0
 51
253.7470682898
  0
LINE
  5
55
  8
0
  6
CONTINUOUS
 62
     7
 10
152.9345686278
 20
99.4925238781
 30
0.0
 11
148.74661625
 21
100.7134328254
 31
0.0
  0
ARC
  5
56
  8
0
  6
CONTINUOUS
 62
     7
 10
153.2144469879
 20
100.4525594329
 30
0.0
 40
0.9999999999999982
 50
253.7470682898
 51
331.2529317102
  0
LINE
  5
57
  8
0
  6
CONTINUOUS
 62
     7
 10
156.4892685703
 20
104.3432513841
 30
0.0
 11
154.0911981567
 21
99.9716157682
 31
0.0
  0
LINE
  5
58
  8
0
  6
CONTINUOUS
 62
     7
 10
157.7212881959
 20
105.5752710097
 30
0.0
 11
156.4892685703
 21
104.3432513841
 31
0.0
  0
LINE
  5
59
  8
0
  6
CONTINUOUS
 62
     7
 10
162.0929238117
 20
107.9733414233
 30
0.0
 11
157.7212881959
 21
105.5752710097
 31
0.0
  0
ARC
  5
5A
  8
0
  6
CONTINUOUS
 62
     7
 10
161.6119801471
 20
108.8500925921
 30
0.0
 40
0.9999999999999963
 50
298.7470682898
 51
16.2529317102
  0
LINE
  5
5B
  8
0
  6
CONTINUOUS
 62
     7
 10
161.3511067546
 20
113.31792333
 30
0.0
 11
162.5720157019
 21
109.1299709521
 31
0.0
  0
ARC
  5
5C
  8
0
  6
CONTINUOUS
 62
     7
 10
160.3910707715
 20
113.0380452342
 30
0.0
 40
1.000000000000047
 50
16.2529317102
 51
90.0
  0
LINE
  5
5D
  8
0
  6
CONTINUOUS
 62
     7
 10
156.2644668586
 20
114.0380452277
 30
0.0
 11
160.3910705737
 21
114.0380452277
 31
0.0
  0
ARC
  5
5E
  8
0
  6
CONTINUOUS
 62
     7
 10
156.2644669134
 20
112.0380452342
 30
0.0
 40
2.000000000000026
 50
90.0
 51
135.0
  0
LINE
  5
5F
  8
0
  6
CONTINUOUS
 62
     7
 10
151.8312670953
 20
110.4332726106
 30
0.0
 11
154.850253529
 21
113.4522588115
 31
0.0
  0
LINE
  5
60
  8
0
  6
CONTINUOUS
 62
     7
 10
151.6312669693
 20
110.4332726106
 30
0.0
 11
151.8312670953
 21
110.4332726106
 31
0.0
  0
LINE
  5
61
  8
0
  6
CONTINUOUS
 62
     7
 10
151.6312669693
 20
110.2332724847
 30
0.0
 11
151.6312669693
 21
110.4332726106
 31
0.0
  0
LINE
  5
62
  8
0
  6
CONTINUOUS
 62
     7
 10
151.6312669693
 20
119.1428178579
 30
0.0
 11
151.8312670953
 21
119.1428178579
 31
0.0
  0
LINE
  5
63
  8
0
  6
CONTINUOUS
 62
     7
 10
151.8312670953
 20
119.1428178579
 30
0.0
 11
154.850253529
 21
116.123831657
 31
0.0
  0
ARC
  5
64
  8
0
  6
CONTINUOUS
 62
     7
 10
156.2644669134
 20
117.5380452342
 30
0.0
 40
2.000000000000016
 50
225.0
 51
270.0
  0
LINE
  5
65
  8
0
  6
CONTINUOUS
 62
     7
 10
156.2644668586
 20
115.5380452408
 30
0.0
 11
160.3910705737
 21
115.5380452408
 31
0.0
  0
ARC
  5
66
  8
0
  6
CONTINUOUS
 62
     7
 10
160.3910707715
 20
116.5380452342
 30
0.0
 40
1.000000000000039
 50
270.0
 51
343.7470682898
  0
LINE
  5
67
  8
0
  6
CONTINUOUS
 62
     7
 10
161.3511067546
 20
116.2581671385
 30
0.0
 11
162.5720157019
 21
120.4461195164
 31
0.0
  0
ARC
  5
68
  8
0
  6
CONTINUOUS
 62
     7
 10
161.6119801471
 20
120.7259978764
 30
0.0
 40
1.000000000000009
 50
343.7470682898
 51
61.2529317102
  0
LINE
  5
69
  8
0
  6
CONTINUOUS
 62
     7
 10
162.0929238117
 20
121.6027490452
 30
0.0
 11
157.7212881959
 21
124.0008194588
 31
0.0
  0
LINE
  5
6A
  8
0
  6
CONTINUOUS
 62
     7
 10
157.7212881959
 20
124.0008194588
 30
0.0
 11
156.4892685703
 21
125.2328390844
 31
0.0
  0
LINE
  5
6B
  8
0
  6
CONTINUOUS
 62
     7
 10
156.4892685703
 20
125.2328390844
 30
0.0
 11
154.0911981567
 21
129.6044747003
 31
0.0
  0
ARC
  5
6C
  8
0
  6
CONTINUOUS
 62
     7
 10
153.2144469879
 20
129.1235310356
 30
0.0
 40
1.000000000000012
 50
28.7470682898
 51
106.2529317102
  0
LINE
  5
6D
  8
0
  6
CONTINUOUS
 62
     7
 10
152.9345686278
 20
130.0835665904
 30
0.0
 11
148.74661625
 21
128.8626576431
 31
0.0
  0
ARC
  5
6E
  8
0
  6
CONTINUOUS
 62
     7
 10
149.0264943457
 20
127.90262166
 30
0.0
 40
0.9999999999999766
 50
106.2529317102
 51
180.0
  0
LINE
  5
6F
  8
0
  6
CONTINUOUS
 62
     7
 10
148.0264943522
 20
127.9026214622
 30
0.0
 11
148.0264943522
 21
123.7760177471
 31
0.0
  0
ARC
  5
70
  8
0
  6
CONTINUOUS
 62
     7
 10
150.0264943457
 20
123.7760178019
 30
0.0
 40
2.000000000000016
 50
180.0
 51
225.0
  0
LINE
  5
71
  8
0
  6
CONTINUOUS
 62
     7
 10
151.6312669693
 20
119.3428179838
 30
0.0
 11
151.6312669693
 21
119.1428178579
 31
0.0
  0
LINE
  5
72
  8
0
  6
CONTINUOUS
 62
     7
 10
158.1366496823
 20
125.8482002311
 30
0.0
 11
158.1366496823
 21
125.6482005708
 31
0.0
  0
LINE
  5
73
  8
0
  6
CONTINUOUS
 62
     7
 10
158.1366496823
 20
125.6482005708
 30
0.0
 11
158.3366493425
 21
125.6482005708
 31
0.0
  0
LINE
  5
74
  8
0
  6
CONTINUOUS
 62
     7
 10
172.0280346191
 20
125.2700789489
 30
0.0
 11
171.9132304854
 21
124.992915488
 31
0.0
  0
LINE
  5
75
  8
0
  6
CONTINUOUS
 62
     7
 10
171.9132304854
 20
124.992915488
 30
0.0
 11
172.1903939462
 21
124.878110423
 31
0.0
  0
ARC
  5
76
  8
0
  6
CONTINUOUS
 62
     7
 10
170.2115231883
 20
124.2880452342
 30
0.0
 40
2.064971157455558
 50
0.0
 51
16.6036705781
  0
LINE
  5
77
  8
0
  6
CONTINUOUS
 62
     7
 10
162.7764940924
 20
114.9880452292
 30
0.0
 11
162.5764944321
 21
114.7880452342
 31
0.0
  0
LINE
  5
78
  8
0
  6
CONTINUOUS
 62
     7
 10
162.7764940924
 20
114.5880452393
 30
0.0
 11
162.5764944321
 21
114.7880452342
 31
0.0
  0
LINE
  5
79
  8
0
  6
CONTINUOUS
 62
     7
 10
162.7764940924
 20
114.5880452393
 30
0.0
 11
162.7764940924
 21
113.7880451868
 31
0.0
  0
LINE
  5
7A
  8
0
  6
CONTINUOUS
 62
     7
 10
162.7764940924
 20
113.7880451868
 30
0.0
 11
164.116458661
 21
109.1917106539
 31
0.0
  0
ARC
  5
7B
  8
0
  6
CONTINUOUS
 62
     7
 10
165.0764943457
 20
109.4715890046
 30
0.0
 40
1.000000000000016
 50
196.2529317102
 51
247.5
  0
LINE
  5
7C
  8
0
  6
CONTINUOUS
 62
     7
 10
164.6938116021
 20
108.5477094755
 30
0.0
 11
167.5111275828
 21
107.3807385408
 31
0.0
  0
ARC
  5
7D
  8
0
  6
CONTINUOUS
 62
     7
 10
168.2764943457
 20
109.2284978053
 30
0.0
 40
2.0
 50
247.5
 51
0.0
  0
LINE
  5
7E
  8
0
  6
CONTINUOUS
 62
     7
 10
170.2764943904
 20
109.2284978956
 30
0.0
 11
170.2764943904
 21
111.5380451672
 31
0.0
  0
LINE
  5
7F
  8
0
  6
CONTINUOUS
 62
     7
 10
170.2764943904
 20
111.5380451672
 30
0.0
 11
172.2764947182
 21
111.5380451672
 31
0.0
  0
LINE
  5
80
  8
0
  6
CONTINUOUS
 62
     7
 10
172.2764947182
 20
111.5380451672
 30
0.0
 11
172.2764947182
 21
105.2880455397
 31
0.0
  0
ARC
  5
81
  8
0
  6
CONTINUOUS
 62
     7
 10
170.2115231883
 20
105.2880452342
 30
0.0
 40
2.064971157455558
 50
343.3963294219
 51
360.0
  0
LINE
  5
82
  8
0
  6
CONTINUOUS
 62
     7
 10
171.9132304854
 20
104.5831749804
 30
0.0
 11
172.1903939462
 21
104.6979800455
 31
0.0
  0
LINE
  5
83
  8
0
  6
CONTINUOUS
 62
     7
 10
172.0280346191
 20
104.3060115196
 30
0.0
 11
171.9132304854
 21
104.5831749804
 31
0.0
  0
ARC
  5
84
  8
0
  6
CONTINUOUS
 62
     7
 10
170.2115231883
 20
105.2880452342
 30
0.0
 40
2.064971157455491
 50
315.0
 51
331.6036705781
  0
LINE
  5
85
  8
0
  6
CONTINUOUS
 62
     7
 10
171.6716789371
 20
103.8278900676
 30
0.0
 11
167.2522608853
 21
99.408472947
 31
0.0
  0
LINE
  5
86
  8
0
  6
CONTINUOUS
 62
     7
 10
167.2522608853
 20
99.408472947
 30
0.0
 11
165.8380475557
 21
100.8226862766
 31
0.0
  0
LINE
  5
87
  8
0
  6
CONTINUOUS
 62
     7
 10
165.8380475557
 20
100.8226862766
 30
0.0
 11
167.4711440421
 21
102.4557827629
 31
0.0
  0
ARC
  5
88
  8
0
  6
CONTINUOUS
 62
     7
 10
166.056930438
 20
103.8699965167
 30
0.0
 40
2.000000000000021
 50
315.0
 51
67.5
  0
LINE
  5
89
  8
0
  6
CONTINUOUS
 62
     7
 10
166.8222971923
 20
105.717755913
 30
0.0
 11
164.0049812115
 21
106.8847263821
 31
0.0
  0
ARC
  5
8A
  8
0
  6
CONTINUOUS
 62
     7
 10
163.6222973027
 20
105.960846781
 30
0.0
 40
1.000000000000009
 50
67.5
 51
118.7470682898
  0
LINE
  5
8B
  8
0
  6
CONTINUOUS
 62
     7
 10
163.1413527495
 20
106.8375977345
 30
0.0
 11
158.9437561772
 21
104.5349967323
 31
0.0
  0
LINE
  5
8C
  8
0
  6
CONTINUOUS
 62
     7
 10
158.9437561772
 20
104.5349967323
 30
0.0
 11
158.3366493425
 21
103.9278898977
 31
0.0
  0
LINE
  5
8D
  8
0
  6
CONTINUOUS
 62
     7
 10
158.1366496823
 20
103.9278898977
 30
0.0
 11
158.3366493425
 21
103.9278898977
 31
0.0
  0
LINE
  5
8E
  8
0
  6
CONTINUOUS
 62
     7
 10
158.1366496823
 20
103.7278902374
 30
0.0
 11
158.1366496823
 21
103.9278898977
 31
0.0
  0
LINE
  5
8F
  8
0
  6
CONTINUOUS
 62
     7
 10
158.1366496823
 20
103.7278902374
 30
0.0
 11
157.5295428476
 21
103.1207834028
 31
0.0
  0
LINE
  5
90
  8
0
  6
CONTINUOUS
 62
     7
 10
157.5295428476
 20
103.1207834028
 30
0.0
 11
155.2269418455
 21
98.9231868304
 31
0.0
  0
ARC
  5
91
  8
0
  6
CONTINUOUS
 62
     7
 10
156.1036927989
 20
98.4422422772
 30
0.0
 40
1.000000000000002
 50
151.2529317102
 51
202.5
  0
LINE
  5
92
  8
0
  6
CONTINUOUS
 62
     7
 10
155.1798131979
 20
98.0595583685
 30
0.0
 11
156.346783667
 21
95.2422423877
 31
0.0
  0
ARC
  5
93
  8
0
  6
CONTINUOUS
 62
     7
 10
158.1945430633
 20
96.007609142
 30
0.0
 40
2.000000000000024
 50
202.5
 51
315.0
  0
LINE
  5
94
  8
0
  6
CONTINUOUS
 62
     7
 10
159.608756817
 20
94.5933955379
 30
0.0
 11
161.2418533034
 21
96.2264920242
 31
0.0
  0
LINE
  5
95
  8
0
  6
CONTINUOUS
 62
     7
 10
161.2418533034
 20
96.2264920242
 30
0.0
 11
162.6560666329
 21
94.8122786947
 31
0.0
  0
LINE
  5
96
  8
0
  6
CONTINUOUS
 62
     7
 10
162.6560666329
 20
94.8122786947
 30
0.0
 11
158.2366495124
 21
90.3928606428
 31
0.0
  0
ARC
  5
97
  8
0
  6
CONTINUOUS
 62
     7
 10
156.7764943457
 20
91.8530163917
 30
0.0
 40
2.06497115745536
 50
298.3963294219
 51
315.0
  0
LINE
  5
98
  8
0
  6
CONTINUOUS
 62
     7
 10
157.4813645995
 20
90.1513090946
 30
0.0
 11
157.7585280604
 21
90.0365049608
 31
0.0
  0
LINE
  5
99
  8
0
  6
CONTINUOUS
 62
     7
 10
157.3665595344
 20
89.8741456337
 30
0.0
 11
157.4813645995
 21
90.1513090946
 31
0.0
  0
ARC
  5
9A
  8
0
  6
CONTINUOUS
 62
     7
 10
156.7764943457
 20
91.8530163917
 30
0.0
 40
2.06497115745546
 50
270.0
 51
286.6036705781
  0
LINE
  5
9B
  8
0
  6
CONTINUOUS
 62
     7
 10
156.7764940402
 20
89.7880448617
 30
0.0
 11
150.5264944128
 21
89.7880448617
 31
0.0
  0
LINE
  5
9C
  8
0
  6
CONTINUOUS
 62
     7
 10
150.5264944128
 20
89.7880448617
 30
0.0
 11
150.5264944128
 21
91.7880451895
 31
0.0
  0
LINE
  5
9D
  8
0
  6
CONTINUOUS
 62
     7
 10
150.5264944128
 20
91.7880451895
 30
0.0
 11
152.8360416844
 21
91.7880451895
 31
0.0
  0
ARC
  5
9E
  8
0
  6
CONTINUOUS
 62
     7
 10
152.8360417747
 20
93.7880452342
 30
0.0
 40
2.000000000000014
 50
270.0
 51
22.5
  0
LINE
  5
9F
  8
0
  6
CONTINUOUS
 62
     7
 10
154.6838010392
 20
94.5534119971
 30
0.0
 11
153.5168301045
 21
97.3707279779
 31
0.0
  0
ARC
  5
A0
  8
0
  6
CONTINUOUS
 62
     7
 10
152.5929505754
 20
96.9880452342
 30
0.0
 40
1.000000000000002
 50
22.5
 51
73.7470682898
  0
LINE
  5
A1
  8
0
  6
CONTINUOUS
 62
     7
 10
152.8728289261
 20
97.948080919
 30
0.0
 11
148.2764943932
 21
99.2880454876
 31
0.0
  0
LINE
  5
A2
  8
0
  6
CONTINUOUS
 62
     7
 10
148.2764943932
 20
99.2880454876
 30
0.0
 11
147.4764943407
 21
99.2880454876
 31
0.0
  0
LINE
  5
A3
  8
0
  6
CONTINUOUS
 62
     7
 10
147.2764943457
 20
99.4880451478
 30
0.0
 11
147.4764943407
 21
99.2880454876
 31
0.0
  0
LINE
  5
A4
  8
0
  6
CONTINUOUS
 62
     7
 10
147.2764943457
 20
99.4880451478
 30
0.0
 11
147.0764943508
 21
99.2880454876
 31
0.0
  0
LINE
  5
A5
  8
0
  6
CONTINUOUS
 62
     7
 10
146.2764942982
 20
99.2880454876
 30
0.0
 11
147.0764943508
 21
99.2880454876
 31
0.0
  0
LINE
  5
A6
  8
0
  6
CONTINUOUS
 62
     7
 10
141.6801597654
 20
97.948080919
 30
0.0
 11
146.2764942982
 21
99.2880454876
 31
0.0
  0
ARC
  5
A7
  8
0
  6
CONTINUOUS
 62
     7
 10
141.960038116
 20
96.9880452342
 30
0.0
 40
1.000000000000002
 50
106.2529317102
 51
157.5
  0
LINE
  5
A8
  8
0
  6
CONTINUOUS
 62
     7
 10
139.8691876522
 20
94.5534119971
 30
0.0
 11
141.0361585869
 21
97.3707279779
 31
0.0
  0
ARC
  5
A9
  8
0
  6
CONTINUOUS
 62
     7
 10
141.7169469167
 20
93.7880452342
 30
0.0
 40
2.0
 50
157.5
 51
270.0
  0
LINE
  5
AA
  8
0
  6
CONTINUOUS
 62
     7
 10
144.0264942787
 20
91.7880451895
 30
0.0
 11
141.7169470071
 21
91.7880451895
 31
0.0
  0
LINE
  5
AB
  8
0
  6
CONTINUOUS
 62
     7
 10
144.0264942787
 20
89.7880448617
 30
0.0
 11
144.0264942787
 21
91.7880451895
 31
0.0
  0
LINE
  5
AC
  8
0
  6
CONTINUOUS
 62
     7
 10
137.7764946512
 20
89.7880448617
 30
0.0
 11
144.0264942787
 21
89.7880448617
 31
0.0
  0
ARC
  5
AD
  8
0
  6
CONTINUOUS
 62
     7
 10
137.7764943457
 20
91.8530163917
 30
0.0
 40
2.064971157455474
 50
253.3963294219
 51
270.0
  0
LINE
  5
AE
  8
0
  6
CONTINUOUS
 62
     7
 10
137.186429157
 20
89.8741456337
 30
0.0
 11
137.0716240919
 21
90.1513090946
 31
0.0
  0
LINE
  5
AF
  8
0
  6
CONTINUOUS
 62
     7
 10
137.0716240919
 20
90.1513090946
 30
0.0
 11
136.7944606311
 21
90.0365049608
 31
0.0
  0
ARC
  5
B0
  8
0
  6
CONTINUOUS
 62
     7
 10
137.7764943457
 20
91.8530163917
 30
0.0
 40
2.06497115745537
 50
225.0
 51
241.6036705781
  0
LINE
  5
B1
  8
0
  6
CONTINUOUS
 62
     7
 10
131.8969220585
 20
94.8122786947
 30
0.0
 11
136.316339179
 21
90.3928606428
 31
0.0
  0
LINE
  5
B2
  8
0
  6
CONTINUOUS
 62
     7
 10
133.3111353881
 20
96.2264920242
 30
0.0
 11
131.8969220585
 21
94.8122786947
 31
0.0
  0
LINE
  5
B3
  8
0
  6
CONTINUOUS
 62
     7
 10
134.9442318744
 20
94.5933955379
 30
0.0
 11
133.3111353881
 21
96.2264920242
 31
0.0
  0
ARC
  5
B4
  8
0
  6
CONTINUOUS
 62
     7
 10
136.3584456282
 20
96.007609142
 30
0.0
 40
2.00000000000002
 50
225.0
 51
337.5
  0
LINE
  5
B5
  8
0
  6
CONTINUOUS
 62
     7
 10
139.3731754935
 20
98.0595583685
 30
0.0
 11
138.2062050245
 21
95.2422423877
 31
0.0
  0
ARC
  5
B6
  8
0
  6
CONTINUOUS
 62
     7
 10
138.4492958925
 20
98.4422422772
 30
0.0
 40
1.000000000000005
 50
337.5
 51
28.7470682898
  0
LINE
  5
B7
  8
0
  6
CONTINUOUS
 62
     7
 10
137.0234458438
 20
103.1207834028
 30
0.0
 11
139.326046846
 21
98.9231868304
 31
0.0
  0
LINE
  5
B8
  8
0
  6
CONTINUOUS
 62
     7
 10
136.4163390092
 20
103.7278902374
 30
0.0
 11
137.0234458438
 21
103.1207834028
 31
0.0
  0
LINE
  5
B9
  8
0
  6
CONTINUOUS
 62
     7
 10
136.4163390092
 20
103.7278902374
 30
0.0
 11
136.4163390092
 21
103.9278898977
 31
0.0
  0
LINE
  5
BA
  8
0
  6
CONTINUOUS
 62
     7
 10
136.4163390092
 20
103.9278898977
 30
0.0
 11
136.2163393489
 21
103.9278898977
 31
0.0
  0
LINE
  5
BB
  8
0
  6
CONTINUOUS
 62
     7
 10
135.6092325143
 20
104.5349967323
 30
0.0
 11
136.2163393489
 21
103.9278898977
 31
0.0
  0
LINE
  5
BC
  8
0
  6
CONTINUOUS
 62
     7
 10
131.4116359419
 20
106.8375977345
 30
0.0
 11
135.6092325143
 21
104.5349967323
 31
0.0
  0
ARC
  5
BD
  8
0
  6
CONTINUOUS
 62
     7
 10
130.9306913887
 20
105.960846781
 30
0.0
 40
0.9999999999999988
 50
61.2529317102
 51
112.5
  0
LINE
  5
BE
  8
0
  6
CONTINUOUS
 62
     7
 10
127.7306914992
 20
105.717755913
 30
0.0
 11
130.54800748
 21
106.8847263821
 31
0.0
  0
ARC
  5
BF
  8
0
  6
CONTINUOUS
 62
     7
 10
128.4960582534
 20
103.8699965167
 30
0.0
 40
2.000000000000016
 50
112.5
 51
225.0
  0
LINE
  5
C0
  8
0
  6
CONTINUOUS
 62
     7
 10
128.7149411357
 20
100.8226862766
 30
0.0
 11
127.0818446494
 21
102.4557827629
 31
0.0
  0
LINE
  5
C1
  8
0
  6
CONTINUOUS
 62
     7
 10
127.3007278061
 20
99.408472947
 30
0.0
 11
128.7149411357
 21
100.8226862766
 31
0.0
  0
LINE
  5
C2
  8
0
  6
CONTINUOUS
 62
     7
 10
122.8813097543
 20
103.8278900676
 30
0.0
 11
127.3007278061
 21
99.408472947
 31
0.0
  0
ARC
  5
C3
  8
0
  6
CONTINUOUS
 62
     7
 10
124.3414655032
 20
105.2880452343
 30
0.0
 40
2.064971157455481
 50
208.3963294219
 51
225.0
  0
LINE
  5
C4
  8
0
  6
CONTINUOUS
 62
     7
 10
122.5249540723
 20
104.3060115196
 30
0.0
 11
122.6397582061
 21
104.5831749804
 31
0.0
  0
LINE
  5
C5
  8
0
  6
CONTINUOUS
 62
     7
 10
122.6397582061
 20
104.5831749804
 30
0.0
 11
122.3625947452
 21
104.6979800455
 31
0.0
  0
ARC
  5
C6
  8
0
  6
CONTINUOUS
 62
     7
 10
124.3414655032
 20
105.2880452343
 30
0.0
 40
2.064971157455548
 50
180.0
 51
196.6036705781
  0
LINE
  5
C7
  8
0
  6
CONTINUOUS
 62
     7
 10
122.2764939732
 20
111.5380451672
 30
0.0
 11
122.2764939732
 21
105.2880455397
 31
0.0
  0
LINE
  5
C8
  8
0
  6
CONTINUOUS
 62
     7
 10
124.276494301
 20
111.5380451672
 30
0.0
 11
122.2764939732
 21
111.5380451672
 31
0.0
  0
LINE
  5
C9
  8
0
  6
CONTINUOUS
 62
     7
 10
124.276494301
 20
109.2284978956
 30
0.0
 11
124.276494301
 21
111.5380451672
 31
0.0
  0
ARC
  5
CA
  8
0
  6
CONTINUOUS
 62
     7
 10
126.2764943457
 20
109.2284978053
 30
0.0
 40
2.0
 50
180.0
 51
292.5
  0
LINE
  5
CB
  8
0
  6
CONTINUOUS
 62
     7
 10
129.8591770894
 20
108.5477094755
 30
0.0
 11
127.0418611086
 21
107.3807385408
 31
0.0
  0
ARC
  5
CC
  8
0
  6
CONTINUOUS
 62
     7
 10
129.4764943457
 20
109.4715890046
 30
0.0
 40
1.000000000000014
 50
292.5
 51
343.7470682898
  0
LINE
  5
CD
  8
0
  6
CONTINUOUS
 62
     7
 10
131.776494599
 20
113.7880451868
 30
0.0
 11
130.4365300304
 21
109.1917106539
 31
0.0
  0
LINE
  5
CE
  8
0
  6
CONTINUOUS
 62
     7
 10
131.776494599
 20
114.5880452393
 30
0.0
 11
131.776494599
 21
113.7880451868
 31
0.0
  0
LINE
  5
CF
  8
0
  6
CONTINUOUS
 62
     7
 10
131.776494599
 20
114.5880452393
 30
0.0
 11
131.9764942593
 21
114.7880452342
 31
0.0
  0
LINE
  5
D0
  8
0
  6
CONTINUOUS
 62
     7
 10
131.776494599
 20
114.9880452292
 30
0.0
 11
131.9764942593
 21
114.7880452342
 31
0.0
  0
LINE
  5
D1
  8
0
  6
CONTINUOUS
 62
     7
 10
131.776494599
 20
114.9880452292
 30
0.0
 11
131.776494599
 21
115.7880452817
 31
0.0
  0
LINE
  5
D2
  8
0
  6
CONTINUOUS
 62
     7
 10
131.776494599
 20
115.7880452817
 30
0.0
 11
130.4365300304
 21
120.3843798146
 31
0.0
  0
ARC
  5
D3
  8
0
  6
CONTINUOUS
 62
     7
 10
129.4764943457
 20
120.1045014639
 30
0.0
 40
1.000000000000005
 50
16.2529317102
 51
67.5
  0
LINE
  5
D4
  8
0
  6
CONTINUOUS
 62
     7
 10
129.8591770894
 20
121.028380993
 30
0.0
 11
127.0418611086
 21
122.1953519277
 31
0.0
  0
ARC
  5
D5
  8
0
  6
CONTINUOUS
 62
     7
 10
126.2764943457
 20
120.3475926632
 30
0.0
 40
2.000000000000004
 50
67.5
 51
180.0
  0
LINE
  5
D6
  8
0
  6
CONTINUOUS
 62
     7
 10
124.276494301
 20
120.3475925729
 30
0.0
 11
124.276494301
 21
118.0380453013
 31
0.0
  0
LINE
  5
D7
  8
0
  6
CONTINUOUS
 62
     7
 10
124.276494301
 20
118.0380453013
 30
0.0
 11
122.2764939732
 21
118.0380453013
 31
0.0
  0
LINE
  5
D8
  8
0
  6
CONTINUOUS
 62
     7
 10
122.2764939732
 20
118.0380453013
 30
0.0
 11
122.2764939732
 21
124.2880449288
 31
0.0
  0
ARC
  5
D9
  8
0
  6
CONTINUOUS
 62
     7
 10
124.3414655032
 20
124.2880452342
 30
0.0
 40
2.064971157455534
 50
163.3963294219
 51
180.0
  0
LINE
  5
DA
  8
0
  6
CONTINUOUS
 62
     7
 10
122.6397582061
 20
124.992915488
 30
0.0
 11
122.3625947452
 21
124.878110423
 31
0.0
  0
LINE
  5
DB
  8
0
  6
CONTINUOUS
 62
     7
 10
122.5249540723
 20
125.2700789489
 30
0.0
 11
122.6397582061
 21
124.992915488
 31
0.0
  0
ARC
  5
DC
  8
0
  6
CONTINUOUS
 62
     7
 10
124.3414655032
 20
124.2880452342
 30
0.0
 40
2.064971157455471
 50
135.0
 51
151.6036705781
  0
LINE
  5
DD
  8
0
  6
CONTINUOUS
 62
     7
 10
122.8813097543
 20
125.7482004009
 30
0.0
 11
127.3007278061
 21
130.1676175215
 31
0.0
  0
LINE
  5
DE
  8
0
  6
CONTINUOUS
 62
     7
 10
127.3007278061
 20
130.1676175215
 30
0.0
 11
128.7149411357
 21
128.7534041919
 31
0.0
  0
LINE
  5
DF
  8
0
  6
CONTINUOUS
 62
     7
 10
128.7149411357
 20
128.7534041919
 30
0.0
 11
127.0818446494
 21
127.1203077056
 31
0.0
  0
ARC
  5
E0
  8
0
  6
CONTINUOUS
 62
     7
 10
128.4960582534
 20
125.7060939518
 30
0.0
 40
2.000000000000023
 50
135.0
 51
247.5
  0
LINE
  5
E1
  8
0
  6
CONTINUOUS
 62
     7
 10
127.7306914992
 20
123.8583345555
 30
0.0
 11
130.54800748
 21
122.6913640864
 31
0.0
  0
ARC
  5
E2
  8
0
  6
CONTINUOUS
 62
     7
 10
130.9306913887
 20
123.6152436875
 30
0.0
 40
1.000000000000005
 50
247.5
 51
298.7470682898
  0
LINE
  5
E3
  8
0
  6
CONTINUOUS
 62
     7
 10
131.4116359419
 20
122.738492734
 30
0.0
 11
135.6092325143
 21
125.0410937362
 31
0.0
  0
LINE
  5
E4
  8
0
  6
CONTINUOUS
 62
     7
 10
135.6092325143
 20
125.0410937362
 30
0.0
 11
136.2163393489
 21
125.6482005708
 31
0.0
  0
LINE
  5
E5
  8
0
  6
CONTINUOUS
 62
     7
 10
136.4163390092
 20
125.6482005708
 30
0.0
 11
136.2163393489
 21
125.6482005708
 31
0.0
  0
LINE
  5
E6
  8
0
  6
CONTINUOUS
 62
     7
 10
136.4163390092
 20
125.8482002311
 30
0.0
 11
136.4163390092
 21
125.6482005708
 31
0.0
  0
LINE
  5
E7
  8
0
  6
CONTINUOUS
 62
     7
 10
136.4163390092
 20
125.8482002311
 30
0.0
 11
137.0234458438
 21
126.4553070657
 31
0.0
  0
LINE
  5
E8
  8
0
  6
CONTINUOUS
 62
     7
 10
137.0234458438
 20
126.4553070657
 30
0.0
 11
139.326046846
 21
130.6529036381
 31
0.0
  0
ARC
  5
E9
  8
0
  6
CONTINUOUS
 62
     7
 10
138.4492958925
 20
131.1338481913
 30
0.0
 40
1.00000000000001
 50
331.2529317102
 51
22.5
  0
LINE
  5
EA
  8
0
  6
CONTINUOUS
 62
     7
 10
139.3731754935
 20
131.5165321
 30
0.0
 11
138.2062050245
 21
134.3338480808
 31
0.0
  0
ARC
  5
EB
  8
0
  6
CONTINUOUS
 62
     7
 10
136.3584456282
 20
133.5684813265
 30
0.0
 40
2.000000000000016
 50
22.5
 51
135.0
  0
LINE
  5
EC
  8
0
  6
CONTINUOUS
 62
     7
 10
134.9442318744
 20
134.9826949306
 30
0.0
 11
133.3111353881
 21
133.3495984443
 31
0.0
  0
LINE
  5
ED
  8
0
  6
CONTINUOUS
 62
     7
 10
133.3111353881
 20
133.3495984443
 30
0.0
 11
131.8969220585
 21
134.7638117738
 31
0.0
  0
LINE
  5
EE
  8
0
  6
CONTINUOUS
 62
     7
 10
131.8969220585
 20
134.7638117738
 30
0.0
 11
136.316339179
 21
139.1832298257
 31
0.0
  0
ARC
  5
EF
  8
0
  6
CONTINUOUS
 62
     7
 10
137.7764943457
 20
137.7230740768
 30
0.0
 40
2.064971157455321
 50
118.3963294219
 51
135.0
  0
LINE
  5
F0
  8
0
  6
CONTINUOUS
 62
     7
 10
137.0716240919
 20
139.4247813739
 30
0.0
 11
136.7944606311
 21
139.5395855077
 31
0.0
  0
LINE
  5
F1
  8
0
  6
CONTINUOUS
 62
     7
 10
137.186429157
 20
139.7019448348
 30
0.0
 11
137.0716240919
 21
139.4247813739
 31
0.0
  0
ARC
  5
F2
  8
0
  6
CONTINUOUS
 62
     7
 10
137.7764943457
 20
137.7230740768
 30
0.0
 40
2.064971157455432
 50
90.0
 51
106.6036705781
  0
LINE
  5
F3
  8
0
  6
CONTINUOUS
 62
     7
 10
137.7764946512
 20
139.7880456068
 30
0.0
 11
144.0264942787
 21
139.7880456068
 31
0.0
  0
LINE
  5
F4
  8
0
  6
CONTINUOUS
 62
     7
 10
144.0264942787
 20
139.7880456068
 30
0.0
 11
144.0264942787
 21
137.788045279
 31
0.0
  0
LINE
  5
F5
  8
0
  6
CONTINUOUS
 62
     7
 10
144.0264942787
 20
137.788045279
 30
0.0
 11
141.7169470071
 21
137.788045279
 31
0.0
  0
ARC
  5
F6
  8
0
  6
CONTINUOUS
 62
     7
 10
141.7169469167
 20
135.7880452342
 30
0.0
 40
2.000000000000001
 50
90.0
 51
202.5
  0
LINE
  5
F7
  8
0
  6
CONTINUOUS
 62
     7
 10
139.8691876522
 20
135.0226784714
 30
0.0
 11
141.0361585869
 21
132.2053624906
 31
0.0
  0
ARC
  5
F8
  8
0
  6
CONTINUOUS
 62
     7
 10
141.960038116
 20
132.5880452342
 30
0.0
 40
1.0
 50
202.5
 51
253.7470682898
  0
LINE
  5
F9
  8
0
  6
CONTINUOUS
 62
     7
 10
141.6801597654
 20
131.6280095495
 30
0.0
 11
146.2764942982
 21
130.2880449809
 31
0.0
  0
LINE
  5
FA
  8
0
  6
CONTINUOUS
 62
     7
 10
146.2764942982
 20
130.2880449809
 30
0.0
 11
147.0764943508
 21
130.2880449809
 31
0.0
  0
LINE
  5
FB
  8
0
  6
CONTINUOUS
 62
     7
 10
147.2764943457
 20
130.0880453207
 30
0.0
 11
147.0764943508
 21
130.2880449809
 31
0.0
  0
LINE
  5
FC
  8
0
  6
CONTINUOUS
 62
     7
 10
147.2764943457
 20
130.0880453207
 30
0.0
 11
147.4764943407
 21
130.2880449809
 31
0.0
  0
ARC
  5
FD
  8
0
  6
CONTINUOUS
 62
     7
 10
156.7764943457
 20
137.7230740768
 30
0.0
 40
2.06497115745546
 50
73.3963294219
 51
90.0
  0
LINE
  5
FE
  8
0
  6
CONTINUOUS
 62
     7
 10
157.3665595344
 20
139.7019448348
 30
0.0
 11
157.4813645995
 21
139.4247813739
 31
0.0
  0
LINE
  5
FF
  8
0
  6
CONTINUOUS
 62
     7
 10
157.4813645995
 20
139.4247813739
 30
0.0
 11
157.7585280604
 21
139.5395855077
 31
0.0
  0
LINE
  5
100
  8
0
  6
CONTINUOUS
 62
     7
 10
145.5264942917
 20
119.6880452924
 30
0.0
 11
145.5264942917
 21
118.7880454242
 31
0.0
  0
ARC
  5
101
  8
0
  6
CONTINUOUS
 62
     7
 10
145.3264943457
 20
118.7880452342
 30
0.0
 40
0.199999999999989
 50
295.9892335838
 51
360.0
  0
ARC
  5
102
  8
0
  6
CONTINUOUS
 62
     7
 10
147.2764943457
 20
114.7880452342
 30
0.0
 40
4.250000000000008
 50
115.9892335838
 51
154.0107664162
  0
ARC
  5
103
  8
0
  6
CONTINUOUS
 62
     7
 10
143.2764943457
 20
116.7380452342
 30
0.0
 40
0.1999999999999949
 50
270.0
 51
334.0107664162
  0
LINE
  5
104
  8
0
  6
CONTINUOUS
 62
     7
 10
143.2764941557
 20
116.5380452883
 30
0.0
 11
142.3764942876
 21
116.5380452883
 31
0.0
  0
ARC
  5
105
  8
0
  6
CONTINUOUS
 62
     7
 10
142.3764943457
 20
116.2380452342
 30
0.0
 40
0.3000000000000114
 50
90.0
 51
180.0
  0
ARC
  5
106
  8
0
  6
CONTINUOUS
 62
     7
 10
142.3764943457
 20
113.3380452342
 30
0.0
 40
0.3000000000000114
 50
180.0
 51
270.0
  0
LINE
  5
107
  8
0
  6
CONTINUOUS
 62
     7
 10
143.2764941557
 20
113.0380451802
 30
0.0
 11
142.3764942876
 21
113.0380451802
 31
0.0
  0
ARC
  5
108
  8
0
  6
CONTINUOUS
 62
     7
 10
143.2764943457
 20
112.8380452342
 30
0.0
 40
0.2000000000000028
 50
25.9892335838
 51
90.0
  0
ARC
  5
109
  8
0
  6
CONTINUOUS
 62
     7
 10
147.2764943457
 20
114.7880452342
 30
0.0
 40
4.250000000000016
 50
205.9892335838
 51
244.0107664162
  0
ARC
  5
10A
  8
0
  6
CONTINUOUS
 62
     7
 10
145.3264943457
 20
110.7880452342
 30
0.0
 40
0.2000000000000171
 50
360.0
 51
64.0107664162
  0
LINE
  5
10B
  8
0
  6
CONTINUOUS
 62
     7
 10
145.5264942917
 20
109.8880451761
 30
0.0
 11
145.5264942917
 21
110.7880450443
 31
0.0
  0
ARC
  5
10C
  8
0
  6
CONTINUOUS
 62
     7
 10
145.8264943457
 20
109.8880452342
 30
0.0
 40
0.3000000000000398
 50
180.0
 51
270.0
  0
LINE
  5
10D
  8
0
  6
CONTINUOUS
 62
     7
 10
145.8264943642
 20
109.5880452201
 30
0.0
 11
148.7264943273
 21
109.5880452201
 31
0.0
  0
ARC
  5
10E
  8
0
  6
CONTINUOUS
 62
     7
 10
148.7264943457
 20
109.8880452342
 30
0.0
 40
0.3000000000000114
 50
270.0
 51
0.0
  0
LINE
  5
10F
  8
0
  6
CONTINUOUS
 62
     7
 10
149.0264943997
 20
109.8880451761
 30
0.0
 11
149.0264943997
 21
110.7880450443
 31
0.0
  0
ARC
  5
110
  8
0
  6
CONTINUOUS
 62
     7
 10
149.2264943457
 20
110.7880452342
 30
0.0
 40
0.1999999999999886
 50
115.9892335838
 51
180.0
  0
ARC
  5
111
  8
0
  6
CONTINUOUS
 62
     7
 10
147.2764943457
 20
114.7880452342
 30
0.0
 40
4.249999999999993
 50
295.9892335838
 51
334.0107664162
  0
ARC
  5
112
  8
0
  6
CONTINUOUS
 62
     7
 10
151.2764943457
 20
112.8380452342
 30
0.0
 40
0.2000000000000142
 50
90.0
 51
154.0107664162
  0
LINE
  5
113
  8
0
  6
CONTINUOUS
 62
     7
 10
151.2764945357
 20
113.0380451802
 30
0.0
 11
152.1764944038
 21
113.0380451802
 31
0.0
  0
ARC
  5
114
  8
0
  6
CONTINUOUS
 62
     7
 10
152.1764943457
 20
113.3380452342
 30
0.0
 40
0.3000000000000114
 50
270.0
 51
0.0
  0
ARC
  5
115
  8
0
  6
CONTINUOUS
 62
     7
 10
145.8264943457
 20
119.6880452342
 30
0.0
 40
0.3000000000000114
 50
90.0
 51
180.0
  0
LINE
  5
116
  8
0
  6
CONTINUOUS
 62
     7
 10
142.0764943316
 20
116.2380452158
 30
0.0
 11
142.0764943316
 21
113.3380452527
 31
0.0
  0
LINE
  5
117
  8
0
  6
CONTINUOUS
 62
     7
 10
152.4764943599
 20
116.2380452158
 30
0.0
 11
152.4764943599
 21
113.3380452527
 31
0.0
  0
LINE
  5
118
  8
0
  6
CONTINUOUS
 62
     7
 10
162.7764940924
 20
114.9880452292
 30
0.0
 11
162.7764940924
 21
115.7880452817
 31
0.0
  0
LINE
  5
119
  8
0
  6
CONTINUOUS
 62
     7
 10
162.7764940924
 20
115.7880452817
 30
0.0
 11
164.116458661
 21
120.3843798146
 31
0.0
  0
ARC
  5
11A
  8
0
  6
CONTINUOUS
 62
     7
 10
165.0764943457
 20
120.1045014639
 30
0.0
 40
1.000000000000012
 50
112.5
 51
163.7470682898
  0
LINE
  5
11B
  8
0
  6
CONTINUOUS
 62
     7
 10
164.6938116021
 20
121.028380993
 30
0.0
 11
167.5111275828
 21
122.1953519277
 31
0.0
  0
ARC
  5
11C
  8
0
  6
CONTINUOUS
 62
     7
 10
168.2764943457
 20
120.3475926632
 30
0.0
 40
2.0
 50
0.0
 51
112.5
  0
LINE
  5
11D
  8
0
  6
CONTINUOUS
 62
     7
 10
170.2764943904
 20
120.3475925729
 30
0.0
 11
170.2764943904
 21
118.0380453013
 31
0.0
  0
LINE
  5
11E
  8
0
  6
CONTINUOUS
 62
     7
 10
170.2764943904
 20
118.0380453013
 30
0.0
 11
172.2764947182
 21
118.0380453013
 31
0.0
  0
LINE
  5
11F
  8
0
  6
CONTINUOUS
 62
     7
 10
172.2764947182
 20
118.0380453013
 30
0.0
 11
172.2764947182
 21
124.2880449288
 31
0.0
  0
LINE
  5
120
  8
0
  6
CONTINUOUS
 62
     7
 10
167.2522608853
 20
130.1676175215
 30
0.0
 11
165.8380475557
 21
128.7534041919
 31
0.0
  0
LINE
  5
121
  8
0
  6
CONTINUOUS
 62
     7
 10
165.8380475557
 20
128.7534041919
 30
0.0
 11
167.4711440421
 21
127.1203077056
 31
0.0
  0
ARC
  5
122
  8
0
  6
CONTINUOUS
 62
     7
 10
166.056930438
 20
125.7060939518
 30
0.0
 40
2.000000000000006
 50
292.5
 51
45.0
  0
LINE
  5
123
  8
0
  6
CONTINUOUS
 62
     7
 10
166.8222971923
 20
123.8583345555
 30
0.0
 11
164.0049812115
 21
122.6913640864
 31
0.0
  0
ARC
  5
124
  8
0
  6
CONTINUOUS
 62
     7
 10
163.6222973027
 20
123.6152436875
 30
0.0
 40
0.9999999999999961
 50
241.2529317102
 51
292.5
  0
LINE
  5
125
  8
0
  6
CONTINUOUS
 62
     7
 10
163.1413527495
 20
122.738492734
 30
0.0
 11
158.9437561772
 21
125.0410937362
 31
0.0
  0
LINE
  5
126
  8
0
  6
CONTINUOUS
 62
     7
 10
158.9437561772
 20
125.0410937362
 30
0.0
 11
158.3366493425
 21
125.6482005708
 31
0.0
  0
LINE
  5
127
  8
0
  6
CONTINUOUS
 62
     7
 10
157.5295428476
 20
126.4553070657
 30
0.0
 11
155.2269418455
 21
130.6529036381
 31
0.0
  0
ARC
  5
128
  8
0
  6
CONTINUOUS
 62
     7
 10
156.1036927989
 20
131.1338481913
 30
0.0
 40
1.000000000000007
 50
157.5
 51
208.7470682898
  0
LINE
  5
129
  8
0
  6
CONTINUOUS
 62
     7
 10
155.1798131979
 20
131.5165321
 30
0.0
 11
156.346783667
 21
134.3338480808
 31
0.0
  0
ARC
  5
12A
  8
0
  6
CONTINUOUS
 62
     7
 10
158.1945430633
 20
133.5684813265
 30
0.0
 40
2.000000000000029
 50
45.0
 51
157.5
  0
LINE
  5
12B
  8
0
  6
CONTINUOUS
 62
     7
 10
159.608756817
 20
134.9826949306
 30
0.0
 11
161.2418533034
 21
133.3495984443
 31
0.0
  0
LINE
  5
12C
  8
0
  6
CONTINUOUS
 62
     7
 10
161.2418533034
 20
133.3495984443
 30
0.0
 11
162.6560666329
 21
134.7638117738
 31
0.0
  0
LINE
  5
12D
  8
0
  6
CONTINUOUS
 62
     7
 10
162.6560666329
 20
134.7638117738
 30
0.0
 11
158.2366495124
 21
139.1832298257
 31
0.0
  0
LINE
  5
12E
  8
0
  6
CONTINUOUS
 62
     7
 10
150.5264944128
 20
139.7880456068
 30
0.0
 11
150.5264944128
 21
137.788045279
 31
0.0
  0
LINE
  5
12F
  8
0
  6
CONTINUOUS
 62
     7
 10
150.5264944128
 20
137.788045279
 30
0.0
 11
152.8360416844
 21
137.788045279
 31
0.0
  0
ARC
  5
130
  8
0
  6
CONTINUOUS
 62
     7
 10
152.8360417747
 20
135.7880452342
 30
0.0
 40
2.0
 50
337.5
 51
90.0
  0
LINE
  5
131
  8
0
  6
CONTINUOUS
 62
     7
 10
154.6838010392
 20
135.0226784714
 30
0.0
 11
153.5168301045
 21
132.2053624906
 31
0.0
  0
ARC
  5
132
  8
0
  6
CONTINUOUS
 62
     7
 10
152.5929505754
 20
132.5880452342
 30
0.0
 40
1.000000000000012
 50
286.2529317102
 51
337.5
  0
LINE
  5
133
  8
0
  6
CONTINUOUS
 62
     7
 10
152.8728289261
 20
131.6280095495
 30
0.0
 11
148.2764943932
 21
130.2880449809
 31
0.0
  0
LINE
  5
134
  8
0
  6
CONTINUOUS
 62
     7
 10
148.2764943932
 20
130.2880449809
 30
0.0
 11
147.4764943407
 21
130.2880449809
 31
0.0
  0
LINE
  5
135
  8
0
  6
CONTINUOUS
 62
     7
 10
145.8264943642
 20
119.9880452484
 30
0.0
 11
148.7264943273
 21
119.9880452484
 31
0.0
  0
ARC
  5
136
  8
0
  6
CONTINUOUS
 62
     7
 10
148.7264943457
 20
119.6880452342
 30
0.0
 40
0.3000000000000114
 50
360.0
 51
90.0
  0
LINE
  5
137
  8
0
  6
CONTINUOUS
 62
     7
 10
149.0264943997
 20
119.6880452924
 30
0.0
 11
149.0264943997
 21
118.7880454242
 31
0.0
  0
ARC
  5
138
  8
0
  6
CONTINUOUS
 62
     7
 10
149.2264943457
 20
118.7880452342
 30
0.0
 40
0.2000000000000014
 50
180.0
 51
244.0107664162
  0
ARC
  5
139
  8
0
  6
CONTINUOUS
 62
     7
 10
147.2764943457
 20
114.7880452342
 30
0.0
 40
4.249999999999993
 50
25.9892335838
 51
64.0107664162
  0
ARC
  5
13A
  8
0
  6
CONTINUOUS
 62
     7
 10
151.2764943457
 20
116.7380452342
 30
0.0
 40
0.2000000000000142
 50
205.9892335838
 51
270.0
  0
LINE
  5
13B
  8
0
  6
CONTINUOUS
 62
     7
 10
151.2764945357
 20
116.5380452883
 30
0.0
 11
152.1764944038
 21
116.5380452883
 31
0.0
  0
ARC
  5
13C
  8
0
  6
CONTINUOUS
 62
     7
 10
152.1764943457
 20
116.2380452342
 30
0.0
 40
0.3000000000000114
 50
0.0
 51
90.0
  0
LINE
  5
13D
  8
0
  6
CONTINUOUS
 62
     7
 10
171.6716789371
 20
125.7482004009
 30
0.0
 11
167.2522608853
 21
130.1676175215
 31
0.0
  0
LINE
  5
13E
  8
0
  6
CONTINUOUS
 62
     7
 10
156.7764940402
 20
139.7880456068
 30
0.0
 11
150.5264944128
 21
139.7880456068
 31
0.0
  0
LINE
  5
13F
  8
0
  6
CONTINUOUS
 62
     7
 10
158.1366496823
 20
125.8482002311
 30
0.0
 11
157.5295428476
 21
126.4553070657
 31
0.0
  0
LINE
  5
140
  8
0
  6
CONTINUOUS
 62
     7
 10
148.6122807684
 20
122.3618044175
 30
0.0
 11
151.6312669693
 21
119.3428179838
 31
0.0
  0
ARC
  5
141
  8
0
  6
CONTINUOUS
 62
     7
 10
170.2115231883
 20
124.2880452342
 30
0.0
 40
2.064971157455491
 50
28.3963294219
 51
45.0
  0
ARC
  5
142
  8
0
  6
CONTINUOUS
 62
     7
 10
156.7764943457
 20
137.7230740768
 30
0.0
 40
2.06497115745536
 50
45.0
 51
61.6036705781
  0
ENDSEC
  0
EOF
