  0
SECTION
  2
HEADER
  9
$ACADVER
  1
AC1009
  9
$INSBASE
 10
0.0
 20
0.0
 30
0.0
  9
$EXTMIN
 10
0.0
 20
0.0
 30
0.0
  9
$EXTMAX
 10
297.0
 20
210.0
 30
0.0
  9
$LIMMIN
 10
0.0
 20
0.0
  9
$LIMMAX
 10
0.0
 20
0.0
  9
$ORTHOMODE
 70
         0
  9
$REGENMODE
 70
         1
  9
$FILLMODE
 70
         1
  9
$QTEXTMODE
 70
         0
  9
$MIRRTEXT
 70
         1
  9
$DRAGMODE
 70
         2
  9
$LTSCALE
 40
1.0
  9
$OSMODE
 70
         0
  9
$ATTMODE
 70
         1
  9
$TEXTSIZE
 40
2.6458333333
  9
$TRACEWID
 40
0.05
  9
$TEXTSTYLE
  7
STANDARD
  9
$CLAYER
  8
0
  9
$CELTYPE
  6
CONTINUOUS
  9
$CECOLOR
 62
       256
  9
$DIMSCALE
 40
1.0
  9
$DIMASZ
 40
2.5
  9
$DIMEXO
 40
0.1
  9
$DIMDLI
 40
0.38
  9
$DIMRND
 40
0.0
  9
$DIMDLE
 40
1.0
  9
$DIMEXE
 40
0.18
  9
$DIMTP
 40
0.0
  9
$DIMTM
 40
0.0
  9
$DIMTXT
 40
2.6458333333
  9
$DIMCEN
 40
0.09
  9
$DIMTSZ
 40
0.0
  9
$DIMTOL
 70
         0
  9
$DIMLIM
 70
         0
  9
$DIMTIH
 70
         1
  9
$DIMTOH
 70
         1
  9
$DIMSE1
 70
         0
  9
$DIMSE2
 70
         0
  9
$DIMTAD
 70
         1
  9
$DIMZIN
 70
         0
  9
$DIMBLK
  1

  9
$DIMASO
 70
         1
  9
$DIMSHO
 70
         1
  9
$DIMPOST
  1

  9
$DIMAPOST
  1

  9
$DIMALT
 70
         0
  9
$DIMALTD
 70
         2
  9
$DIMALTF
 40
0.0394
  9
$DIMLFAC
 40
1.0
  9
$DIMTOFL
 70
         0
  9
$DIMTVP
 40
0.0
  9
$DIMTIX
 70
         0
  9
$DIMSOXD
 70
         0
  9
$DIMSAH
 70
         0
  9
$DIMBLK1
  1

  9
$DIMBLK2
  1

  9
$DIMSTYLE
  2
STANDARD
  9
$DIMCLRD
 70
         0
  9
$DIMCLRE
 70
         0
  9
$DIMCLRT
 70
         0
  9
$DIMTFAC
 40
1.0
  9
$DIMGAP
 40
0.1
  9
$LUNITS
 70
         2
  9
$LUPREC
 70
         1
  9
$AXISMODE
 70
         0
  9
$AXISUNIT
 10
0.0
 20
0.0
  9
$SKETCHINC
 40
0.1
  9
$FILLETRAD
 40
0.0
  9
$AUNITS
 70
         0
  9
$AUPREC
 70
         2
  9
$MENU
  1
acad
  9
$ELEVATION
 40
0.0
  9
$PELEVATION
 40
0.0
  9
$THICKNESS
 40
0.0
  9
$LIMCHECK
 70
         0
  9
$BLIPMODE
 70
         1
  9
$CHAMFERA
 40
0.0
  9
$CHAMFERB
 40
0.0
  9
$SKPOLY
 70
         0
  9
$TDCREATE
 40
0.000000000
  9
$TDUPDATE
 40
0.000000000
  9
$TDINDWG
 40
0.0000000000
  9
$TDUSRTIMER
 40
0.0000000000
  9
$USRTIMER
 70
         1
  9
$ANGBASE
 50
0.0
  9
$ANGDIR
 70
         0
  9
$PDMODE
 70
         0
  9
$PDSIZE
 40
-1.0
  9
$PLINEWID
 40
0.0
  9
$COORDS
 70
         0
  9
$SPLFRAME
 70
         0
  9
$SPLINETYPE
 70
         6
  9
$SPLINESEGS
 70
         8
  9
$ATTDIA
 70
         0
  9
$ATTREQ
 70
         1
  9
$HANDLING
 70
         1
  9
$HANDSEED
  5
A9
  9
$SURFTAB1
 70
         6
  9
$SURFTAB2
 70
         6
  9
$SURFTYPE
 70
         6
  9
$SURFU
 70
         6
  9
$SURFV
 70
         6
  9
$UCSNAME
  2

  9
$UCSORG
 10
0.0
 20
0.0
 30
0.0
  9
$UCSXDIR
 10
1.0
 20
0.0
 30
0.0
  9
$UCSYDIR
 10
0.0
 20
1.0
 30
0.0
  9
$PUCSNAME
  2

  9
$PUCSORG
 10
0.0
 20
0.0
 30
0.0
  9
$PUCSXDIR
 10
1.0
 20
0.0
 30
0.0
  9
$PUCSYDIR
 10
0.0
 20
1.0
 30
0.0
  9
$USERI1
 70
         0
  9
$USERI2
 70
         0
  9
$USERI3
 70
         0
  9
$USERI4
 70
         0
  9
$USERI5
 70
         0
  9
$USERR1
 40
0.0
  9
$USERR2
 40
0.0
  9
$USERR3
 40
0.0
  9
$USERR4
 40
0.0
  9
$USERR5
 40
0.0
  9
$WORLDVIEW
 70
         1
  9
$SHADEDGE
 70
         3
  9
$SHADEDIF
 70
        70
  9
$TILEMODE
 70
         1
  9
$MAXACTVP
 70
        16
  9
$PINSBASE
 10
0.0
 20
0.0
 30
0.0
  9
$PLIMCHECK
 70
         0
  9
$PEXTMIN
 10
1.0000000000E+20
 20
1.0000000000E+20
 30
1.0000000000E+20
  9
$PEXTMAX
 10
-1.0000000000E+20
 20
-1.0000000000E+20
 30
-1.0000000000E+20
  9
$PLIMMIN
 10
0.0
 20
0.0
  9
$PLIMMAX
 10
12.0
 20
9.0
  9
$UNITMODE
 70
         0
  9
$VISRETAIN
 70
         0
  9
$PLINEGEN
 70
         1
  9
$PSLTSCALE
 70
         1
  9
$TREEDEPTH
 70
      3020
  9
$DWGCODEPAGE
  3
ansi_1252
  0
ENDSEC
  0
SECTION
  2
TABLES
  0
TABLE
  2
VPORT
 70
         1
  0
VPORT
  2
*ACTIVE
 70
         0
 10
0.0
 20
0.0
 11
1.0
 21
1.0
 12
148.5
 22
105.0
 13
0.0
 23
0.0
 14
1.0
 24
1.0
 15
0.0
 25
0.0
 16
0.0
 26
0.0
 36
1.0
 17
0.0
 27
0.0
 37
0.0
 40
210.0
 41
0.7070707071
 42
50.0
 43
0.0
 44
0.0
 50
0.0
 51
0.0
 71
         0
 72
      2000
 73
         1
 74
         1
 75
         0
 76
         0
 77
         0
 78
         0
  0
ENDTAB
  0
TABLE
  2
LTYPE
 70
         7
  0
LTYPE
  2
CONTINUOUS
 70
        64
  3
Solid line
 72
        65
 73
         0
 40
0.0
  0
LTYPE
  2
CONTINUOUS
 70
        64
  3
Solid line
 72
        65
 73
         1
 40
60.96
 49
60.96
  0
LTYPE
  2
HIDDEN
 70
        64
  3
Hidden __ __ __ __ __ __ __ __ __ __ __ __ __ __
 72
        65
 73
         2
 40
1.905
 49
1.27
 49
-0.635
  0
LTYPE
  2
PHANTOM
 70
        64
  3
Phantom ______  __  __  ______  __  __  ______
 72
        65
 73
         6
 40
12.7
 49
6.35
 49
-1.27
 49
1.27
 49
-1.27
 49
1.27
 49
-1.27
  0
LTYPE
  2
CENTER
 70
        64
  3
Center ____ _ ____ _ ____ _ ____ _ ____ _ ____
 72
        65
 73
         4
 40
10.16
 49
6.35
 49
-1.27
 49
1.27
 49
-1.27
  0
LTYPE
  2
CENTERX2
 70
        64
  3
Center (2x) ________  __  ________  __  _____
 72
        65
 73
         4
 40
20.32
 49
12.7
 49
-2.54
 49
2.54
 49
-2.54
  0
LTYPE
  2
DOT2
 70
        64
  3
Dot (.5x) ........................................
 72
        65
 73
         2
 40
0.635
 49
0.0
 49
-0.635
  0
ENDTAB
  0
TABLE
  2
LAYER
 70
         2
  0
LAYER
  2
0
 70
         0
 62
         7
  6
CONTINUOUS
  0
LAYER
  2
DEFPOINTS
 70
         0
 62
         7
  6
CONTINUOUS
  0
ENDTAB
  0
TABLE
  2
STYLE
 70
         1
  0
STYLE
  2
STANDARD
 70
         0
 40
0.0
 41
1.0
 50
0.0
 71
         0
 42
0.0
  3
txt
  4

  0
ENDTAB
  0
TABLE
  2
VIEW
 70
         0
  0
ENDTAB
  0
TABLE
  2
UCS
 70
         0
  0
ENDTAB
  0
TABLE
  2
APPID
 70
         1
  0
APPID
  2
ACAD
 70
         0
  0
ENDTAB
  0
TABLE
  2
DIMSTYLE
 70
         1
  0
DIMSTYLE
  2
STANDARD
 70
         0
  3

  4

  5

  6

  7

 40
1.0
 41
0.18
 42
0.0625
 43
0.38
 44
0.18
 45
0.0
 46
0.0
 47
0.0
 48
0.0
 71
         0
 72
         0
 73
         1
 74
         1
 75
         0
 76
         0
 77
         0
 78
         0
140
0.18
141
0.09
142
0.0
143
25.4
144
1.0
145
0.0
146
1.0
147
0.09
170
         0
171
         2
172
         0
173
         0
174
         0
175
         0
176
         0
177
         0
178
         0
  0
ENDTAB
  0
ENDSEC
  0
SECTION
  2
BLOCKS
  0
ENDSEC
  0
SECTION
  2
ENTITIES
  0
LINE
  8
0
  6
CONTINUOUS
 62
         7
  5
27
 10
153.1370807453
 20
113.5745341615
 30
0.0
 11
154.1370807453
 21
112.5745341615
 31
0.0
  0
LINE
  8
0
  6
CONTINUOUS
 62
         7
  5
28
 10
154.1370807453
 20
112.5745341615
 30
0.0
 11
154.1370807453
 21
108.5745341615
 31
0.0
  0
LINE
  8
0
  6
CONTINUOUS
 62
         7
  5
29
 10
154.1370807453
 20
108.5745341615
 30
0.0
 11
150.9370807453
 21
108.5745341615
 31
0.0
  0
LINE
  8
0
  6
CONTINUOUS
 62
         7
  5
2A
 10
150.9370807453
 20
108.5745341615
 30
0.0
 11
150.9370807453
 21
101.5745341615
 31
0.0
  0
LINE
  8
0
  6
CONTINUOUS
 62
         7
  5
2B
 10
150.9370807453
 20
101.5745341615
 30
0.0
 11
165.4370807453
 21
101.5745341615
 31
0.0
  0
LINE
  8
0
  6
CONTINUOUS
 62
         7
  5
2C
 10
165.4370807453
 20
101.5745341615
 30
0.0
 11
165.4370807453
 21
108.5745341615
 31
0.0
  0
LINE
  8
0
  6
CONTINUOUS
 62
         7
  5
2D
 10
165.4370807453
 20
108.5745341615
 30
0.0
 11
162.2370807453
 21
108.5745341615
 31
0.0
  0
LINE
  8
0
  6
CONTINUOUS
 62
         7
  5
2E
 10
162.2370807453
 20
108.5745341615
 30
0.0
 11
162.2370807453
 21
112.5745341615
 31
0.0
  0
LINE
  8
0
  6
CONTINUOUS
 62
         7
  5
2F
 10
162.2370807453
 20
112.5745341615
 30
0.0
 11
163.2370807453
 21
113.5745341615
 31
0.0
  0
LINE
  8
0
  6
CONTINUOUS
 62
         7
  5
30
 10
178.1370807453
 20
113.5745341615
 30
0.0
 11
179.1370807453
 21
112.5745341615
 31
0.0
  0
LINE
  8
0
  6
CONTINUOUS
 62
         7
  5
31
 10
179.1370807453
 20
112.5745341615
 30
0.0
 11
179.1370807453
 21
108.5745341615
 31
0.0
  0
LINE
  8
0
  6
CONTINUOUS
 62
         7
  5
32
 10
179.1370807453
 20
108.5745341615
 30
0.0
 11
175.9370807453
 21
108.5745341615
 31
0.0
  0
LINE
  8
0
  6
CONTINUOUS
 62
         7
  5
33
 10
175.9370807453
 20
108.5745341615
 30
0.0
 11
175.9370807453
 21
101.5745341615
 31
0.0
  0
LINE
  8
0
  6
CONTINUOUS
 62
         7
  5
34
 10
175.9370807453
 20
101.5745341615
 30
0.0
 11
190.4370807453
 21
101.5745341615
 31
0.0
  0
LINE
  8
0
  6
CONTINUOUS
 62
         7
  5
35
 10
190.4370807453
 20
101.5745341615
 30
0.0
 11
190.4370807453
 21
108.5745341615
 31
0.0
  0
LINE
  8
0
  6
CONTINUOUS
 62
         7
  5
36
 10
190.4370807453
 20
108.5745341615
 30
0.0
 11
187.2370807453
 21
108.5745341615
 31
0.0
  0
LINE
  8
0
  6
CONTINUOUS
 62
         7
  5
37
 10
187.2370807453
 20
108.5745341615
 30
0.0
 11
187.2370807453
 21
112.5745341615
 31
0.0
  0
LINE
  8
0
  6
CONTINUOUS
 62
         7
  5
38
 10
187.2370807453
 20
112.5745341615
 30
0.0
 11
188.2370807453
 21
113.5745341615
 31
0.0
  0
LINE
  8
0
  6
CONTINUOUS
 62
         7
  5
39
 10
203.1370807453
 20
113.5745341615
 30
0.0
 11
204.1370807453
 21
112.5745341615
 31
0.0
  0
LINE
  8
0
  6
CONTINUOUS
 62
         7
  5
3A
 10
204.1370807453
 20
112.5745341615
 30
0.0
 11
204.1370807453
 21
108.5745341615
 31
0.0
  0
LINE
  8
0
  6
CONTINUOUS
 62
         7
  5
3B
 10
204.1370807453
 20
108.5745341615
 30
0.0
 11
200.9370807453
 21
108.5745341615
 31
0.0
  0
LINE
  8
0
  6
CONTINUOUS
 62
         7
  5
3C
 10
200.9370807453
 20
108.5745341615
 30
0.0
 11
200.9370807453
 21
101.5745341615
 31
0.0
  0
LINE
  8
0
  6
CONTINUOUS
 62
         7
  5
3D
 10
200.9370807453
 20
101.5745341615
 30
0.0
 11
215.4370807453
 21
101.5745341615
 31
0.0
  0
LINE
  8
0
  6
CONTINUOUS
 62
         7
  5
3E
 10
215.4370807453
 20
101.5745341615
 30
0.0
 11
215.4370807453
 21
108.5745341615
 31
0.0
  0
LINE
  8
0
  6
CONTINUOUS
 62
         7
  5
3F
 10
215.4370807453
 20
108.5745341615
 30
0.0
 11
212.2370807453
 21
108.5745341615
 31
0.0
  0
LINE
  8
0
  6
CONTINUOUS
 62
         7
  5
40
 10
212.2370807453
 20
108.5745341615
 30
0.0
 11
212.2370807453
 21
112.5745341615
 31
0.0
  0
LINE
  8
0
  6
CONTINUOUS
 62
         7
  5
41
 10
212.2370807453
 20
112.5745341615
 30
0.0
 11
213.2370807453
 21
113.5745341615
 31
0.0
  0
LINE
  8
0
  6
CONTINUOUS
 62
         7
  5
42
 10
228.1370807453
 20
113.5745341615
 30
0.0
 11
229.1370807453
 21
112.5745341615
 31
0.0
  0
LINE
  8
0
  6
CONTINUOUS
 62
         7
  5
43
 10
229.1370807453
 20
112.5745341615
 30
0.0
 11
229.1370807453
 21
108.5745341615
 31
0.0
  0
LINE
  8
0
  6
CONTINUOUS
 62
         7
  5
44
 10
229.1370807453
 20
108.5745341615
 30
0.0
 11
225.9370807453
 21
108.5745341615
 31
0.0
  0
LINE
  8
0
  6
CONTINUOUS
 62
         7
  5
45
 10
225.9370807453
 20
108.5745341615
 30
0.0
 11
225.9370807453
 21
101.5745341615
 31
0.0
  0
LINE
  8
0
  6
CONTINUOUS
 62
         7
  5
46
 10
225.9370807453
 20
101.5745341615
 30
0.0
 11
240.4370807453
 21
101.5745341615
 31
0.0
  0
LINE
  8
0
  6
CONTINUOUS
 62
         7
  5
47
 10
240.4370807453
 20
101.5745341615
 30
0.0
 11
240.4370807453
 21
108.5745341615
 31
0.0
  0
LINE
  8
0
  6
CONTINUOUS
 62
         7
  5
48
 10
240.4370807453
 20
108.5745341615
 30
0.0
 11
237.2370807453
 21
108.5745341615
 31
0.0
  0
LINE
  8
0
  6
CONTINUOUS
 62
         7
  5
49
 10
237.2370807453
 20
108.5745341615
 30
0.0
 11
237.2370807453
 21
112.5745341615
 31
0.0
  0
LINE
  8
0
  6
CONTINUOUS
 62
         7
  5
4A
 10
237.2370807453
 20
112.5745341615
 30
0.0
 11
238.2370807453
 21
113.5745341615
 31
0.0
  0
LINE
  8
0
  6
CONTINUOUS
 62
         7
  5
4B
 10
253.1370807453
 20
113.5745341615
 30
0.0
 11
254.1370807453
 21
112.5745341615
 31
0.0
  0
LINE
  8
0
  6
CONTINUOUS
 62
         7
  5
4C
 10
254.1370807453
 20
112.5745341615
 30
0.0
 11
254.1370807453
 21
108.5745341615
 31
0.0
  0
LINE
  8
0
  6
CONTINUOUS
 62
         7
  5
4D
 10
254.1370807453
 20
108.5745341615
 30
0.0
 11
250.9370807453
 21
108.5745341615
 31
0.0
  0
LINE
  8
0
  6
CONTINUOUS
 62
         7
  5
4E
 10
250.9370807453
 20
108.5745341615
 30
0.0
 11
250.9370807453
 21
101.5745341615
 31
0.0
  0
LINE
  8
0
  6
CONTINUOUS
 62
         7
  5
4F
 10
250.9370807453
 20
101.5745341615
 30
0.0
 11
265.4370807453
 21
101.5745341615
 31
0.0
  0
LINE
  8
0
  6
CONTINUOUS
 62
         7
  5
50
 10
265.4370807453
 20
101.5745341615
 30
0.0
 11
265.4370807453
 21
108.5745341615
 31
0.0
  0
LINE
  8
0
  6
CONTINUOUS
 62
         7
  5
51
 10
265.4370807453
 20
108.5745341615
 30
0.0
 11
262.2370807453
 21
108.5745341615
 31
0.0
  0
LINE
  8
0
  6
CONTINUOUS
 62
         7
  5
52
 10
262.2370807453
 20
108.5745341615
 30
0.0
 11
262.2370807453
 21
112.5745341615
 31
0.0
  0
LINE
  8
0
  6
CONTINUOUS
 62
         7
  5
53
 10
262.2370807453
 20
112.5745341615
 30
0.0
 11
263.2370807453
 21
113.5745341615
 31
0.0
  0
LINE
  8
0
  6
CONTINUOUS
 62
         7
  5
54
 10
246.6870807453
 20
95.0745341615
 30
0.0
 11
248.1870807453
 21
93.5745341615
 31
0.0
  0
LINE
  8
0
  6
CONTINUOUS
 62
         7
  5
55
 10
246.6870807453
 20
95.0745341615
 30
0.0
 11
244.6870807453
 21
95.0745341615
 31
0.0
  0
LINE
  8
0
  6
CONTINUOUS
 62
         7
  5
56
 10
244.6870807453
 20
95.0745341615
 30
0.0
 11
243.1870807453
 21
93.5745341615
 31
0.0
  0
LINE
  8
0
  6
CONTINUOUS
 62
         7
  5
57
 10
196.6870807453
 20
95.0745341615
 30
0.0
 11
198.1870807453
 21
93.5745341615
 31
0.0
  0
LINE
  8
0
  6
CONTINUOUS
 62
         7
  5
58
 10
196.6870807453
 20
95.0745341615
 30
0.0
 11
194.6870807453
 21
95.0745341615
 31
0.0
  0
LINE
  8
0
  6
CONTINUOUS
 62
         7
  5
59
 10
194.6870807453
 20
95.0745341615
 30
0.0
 11
193.1870807453
 21
93.5745341615
 31
0.0
  0
LINE
  8
0
  6
CONTINUOUS
 62
         7
  5
5A
 10
146.6870807453
 20
95.0745341615
 30
0.0
 11
148.1870807453
 21
93.5745341615
 31
0.0
  0
LINE
  8
0
  6
CONTINUOUS
 62
         7
  5
5B
 10
146.6870807453
 20
95.0745341615
 30
0.0
 11
144.6870807453
 21
95.0745341615
 31
0.0
  0
LINE
  8
0
  6
CONTINUOUS
 62
         7
  5
5C
 10
144.6870807453
 20
95.0745341615
 30
0.0
 11
143.1870807453
 21
93.5745341615
 31
0.0
  0
LINE
  8
0
  6
CONTINUOUS
 62
         7
  5
5D
 10
143.1870807453
 20
93.5745341615
 30
0.0
 11
98.1870807453
 21
93.5745341615
 31
0.0
  0
LINE
  8
0
  6
CONTINUOUS
 62
         7
  5
5E
 10
96.6870807453
 20
95.0745341615
 30
0.0
 11
98.1870807453
 21
93.5745341615
 31
0.0
  0
LINE
  8
0
  6
CONTINUOUS
 62
         7
  5
5F
 10
94.6870807453
 20
95.0745341615
 30
0.0
 11
96.6870807453
 21
95.0745341615
 31
0.0
  0
LINE
  8
0
  6
CONTINUOUS
 62
         7
  5
60
 10
94.6870807453
 20
95.0745341615
 30
0.0
 11
93.1870807453
 21
93.5745341615
 31
0.0
  0
LINE
  8
0
  6
CONTINUOUS
 62
         7
  5
61
 10
93.1870807453
 20
93.5745341615
 30
0.0
 11
48.1870807453
 21
93.5745341615
 31
0.0
  0
LINE
  8
0
  6
CONTINUOUS
 62
         7
  5
62
 10
46.6870807453
 20
95.0745341615
 30
0.0
 11
48.1870807453
 21
93.5745341615
 31
0.0
  0
LINE
  8
0
  6
CONTINUOUS
 62
         7
  5
63
 10
44.6870807453
 20
95.0745341615
 30
0.0
 11
46.6870807453
 21
95.0745341615
 31
0.0
  0
LINE
  8
0
  6
CONTINUOUS
 62
         7
  5
64
 10
44.6870807453
 20
95.0745341615
 30
0.0
 11
43.1870807453
 21
93.5745341615
 31
0.0
  0
LINE
  8
0
  6
CONTINUOUS
 62
         7
  5
65
 10
21.6870807453
 20
93.5745341615
 30
0.0
 11
20.6870807453
 21
94.5745341615
 31
0.0
  0
LINE
  8
0
  6
CONTINUOUS
 62
         7
  5
66
 10
20.6870807453
 20
94.5745341615
 30
0.0
 11
20.6870807453
 21
112.5745341615
 31
0.0
  0
LINE
  8
0
  6
CONTINUOUS
 62
         7
  5
67
 10
20.6870807453
 20
112.5745341615
 30
0.0
 11
21.6870807453
 21
113.5745341615
 31
0.0
  0
LINE
  8
0
  6
CONTINUOUS
 62
         7
  5
68
 10
21.6870807453
 20
113.5745341615
 30
0.0
 11
28.1370807453
 21
113.5745341615
 31
0.0
  0
LINE
  8
0
  6
CONTINUOUS
 62
         7
  5
69
 10
29.1370807453
 20
112.5745341615
 30
0.0
 11
28.1370807453
 21
113.5745341615
 31
0.0
  0
LINE
  8
0
  6
CONTINUOUS
 62
         7
  5
6A
 10
29.1370807453
 20
108.5745341615
 30
0.0
 11
29.1370807453
 21
112.5745341615
 31
0.0
  0
LINE
  8
0
  6
CONTINUOUS
 62
         7
  5
6B
 10
25.9370807453
 20
108.5745341615
 30
0.0
 11
29.1370807453
 21
108.5745341615
 31
0.0
  0
LINE
  8
0
  6
CONTINUOUS
 62
         7
  5
6C
 10
25.9370807453
 20
101.5745341615
 30
0.0
 11
25.9370807453
 21
108.5745341615
 31
0.0
  0
LINE
  8
0
  6
CONTINUOUS
 62
         7
  5
6D
 10
40.4370807453
 20
101.5745341615
 30
0.0
 11
25.9370807453
 21
101.5745341615
 31
0.0
  0
LINE
  8
0
  6
CONTINUOUS
 62
         7
  5
6E
 10
40.4370807453
 20
108.5745341615
 30
0.0
 11
40.4370807453
 21
101.5745341615
 31
0.0
  0
LINE
  8
0
  6
CONTINUOUS
 62
         7
  5
6F
 10
37.2370807453
 20
108.5745341615
 30
0.0
 11
40.4370807453
 21
108.5745341615
 31
0.0
  0
LINE
  8
0
  6
CONTINUOUS
 62
         7
  5
70
 10
37.2370807453
 20
112.5745341615
 30
0.0
 11
37.2370807453
 21
108.5745341615
 31
0.0
  0
LINE
  8
0
  6
CONTINUOUS
 62
         7
  5
71
 10
38.2370807453
 20
113.5745341615
 30
0.0
 11
37.2370807453
 21
112.5745341615
 31
0.0
  0
LINE
  8
0
  6
CONTINUOUS
 62
         7
  5
72
 10
38.2370807453
 20
113.5745341615
 30
0.0
 11
53.1370807453
 21
113.5745341615
 31
0.0
  0
LINE
  8
0
  6
CONTINUOUS
 62
         7
  5
73
 10
54.1370807453
 20
112.5745341615
 30
0.0
 11
53.1370807453
 21
113.5745341615
 31
0.0
  0
LINE
  8
0
  6
CONTINUOUS
 62
         7
  5
74
 10
54.1370807453
 20
108.5745341615
 30
0.0
 11
54.1370807453
 21
112.5745341615
 31
0.0
  0
LINE
  8
0
  6
CONTINUOUS
 62
         7
  5
75
 10
50.9370807453
 20
108.5745341615
 30
0.0
 11
54.1370807453
 21
108.5745341615
 31
0.0
  0
LINE
  8
0
  6
CONTINUOUS
 62
         7
  5
76
 10
50.9370807453
 20
101.5745341615
 30
0.0
 11
50.9370807453
 21
108.5745341615
 31
0.0
  0
LINE
  8
0
  6
CONTINUOUS
 62
         7
  5
77
 10
65.4370807453
 20
101.5745341615
 30
0.0
 11
50.9370807453
 21
101.5745341615
 31
0.0
  0
LINE
  8
0
  6
CONTINUOUS
 62
         7
  5
78
 10
65.4370807453
 20
108.5745341615
 30
0.0
 11
65.4370807453
 21
101.5745341615
 31
0.0
  0
LINE
  8
0
  6
CONTINUOUS
 62
         7
  5
79
 10
62.2370807453
 20
108.5745341615
 30
0.0
 11
65.4370807453
 21
108.5745341615
 31
0.0
  0
LINE
  8
0
  6
CONTINUOUS
 62
         7
  5
7A
 10
62.2370807453
 20
112.5745341615
 30
0.0
 11
62.2370807453
 21
108.5745341615
 31
0.0
  0
LINE
  8
0
  6
CONTINUOUS
 62
         7
  5
7B
 10
63.2370807453
 20
113.5745341615
 30
0.0
 11
62.2370807453
 21
112.5745341615
 31
0.0
  0
LINE
  8
0
  6
CONTINUOUS
 62
         7
  5
7C
 10
63.2370807453
 20
113.5745341615
 30
0.0
 11
78.1370807453
 21
113.5745341615
 31
0.0
  0
LINE
  8
0
  6
CONTINUOUS
 62
         7
  5
7D
 10
79.1370807453
 20
112.5745341615
 30
0.0
 11
78.1370807453
 21
113.5745341615
 31
0.0
  0
LINE
  8
0
  6
CONTINUOUS
 62
         7
  5
7E
 10
79.1370807453
 20
108.5745341615
 30
0.0
 11
79.1370807453
 21
112.5745341615
 31
0.0
  0
LINE
  8
0
  6
CONTINUOUS
 62
         7
  5
7F
 10
75.9370807453
 20
108.5745341615
 30
0.0
 11
79.1370807453
 21
108.5745341615
 31
0.0
  0
LINE
  8
0
  6
CONTINUOUS
 62
         7
  5
80
 10
75.9370807453
 20
101.5745341615
 30
0.0
 11
75.9370807453
 21
108.5745341615
 31
0.0
  0
LINE
  8
0
  6
CONTINUOUS
 62
         7
  5
81
 10
90.4370807453
 20
101.5745341615
 30
0.0
 11
75.9370807453
 21
101.5745341615
 31
0.0
  0
LINE
  8
0
  6
CONTINUOUS
 62
         7
  5
82
 10
90.4370807453
 20
108.5745341615
 30
0.0
 11
90.4370807453
 21
101.5745341615
 31
0.0
  0
LINE
  8
0
  6
CONTINUOUS
 62
         7
  5
83
 10
87.2370807453
 20
108.5745341615
 30
0.0
 11
90.4370807453
 21
108.5745341615
 31
0.0
  0
LINE
  8
0
  6
CONTINUOUS
 62
         7
  5
84
 10
87.2370807453
 20
112.5745341615
 30
0.0
 11
87.2370807453
 21
108.5745341615
 31
0.0
  0
LINE
  8
0
  6
CONTINUOUS
 62
         7
  5
85
 10
88.2370807453
 20
113.5745341615
 30
0.0
 11
87.2370807453
 21
112.5745341615
 31
0.0
  0
LINE
  8
0
  6
CONTINUOUS
 62
         7
  5
86
 10
88.2370807453
 20
113.5745341615
 30
0.0
 11
103.1370807453
 21
113.5745341615
 31
0.0
  0
LINE
  8
0
  6
CONTINUOUS
 62
         7
  5
87
 10
104.1370807453
 20
112.5745341615
 30
0.0
 11
103.1370807453
 21
113.5745341615
 31
0.0
  0
LINE
  8
0
  6
CONTINUOUS
 62
         7
  5
88
 10
104.1370807453
 20
108.5745341615
 30
0.0
 11
104.1370807453
 21
112.5745341615
 31
0.0
  0
LINE
  8
0
  6
CONTINUOUS
 62
         7
  5
89
 10
100.9370807453
 20
108.5745341615
 30
0.0
 11
104.1370807453
 21
108.5745341615
 31
0.0
  0
LINE
  8
0
  6
CONTINUOUS
 62
         7
  5
8A
 10
100.9370807453
 20
101.5745341615
 30
0.0
 11
100.9370807453
 21
108.5745341615
 31
0.0
  0
LINE
  8
0
  6
CONTINUOUS
 62
         7
  5
8B
 10
115.4370807453
 20
101.5745341615
 30
0.0
 11
100.9370807453
 21
101.5745341615
 31
0.0
  0
LINE
  8
0
  6
CONTINUOUS
 62
         7
  5
8C
 10
115.4370807453
 20
108.5745341615
 30
0.0
 11
115.4370807453
 21
101.5745341615
 31
0.0
  0
LINE
  8
0
  6
CONTINUOUS
 62
         7
  5
8D
 10
112.2370807453
 20
108.5745341615
 30
0.0
 11
115.4370807453
 21
108.5745341615
 31
0.0
  0
LINE
  8
0
  6
CONTINUOUS
 62
         7
  5
8E
 10
112.2370807453
 20
112.5745341615
 30
0.0
 11
112.2370807453
 21
108.5745341615
 31
0.0
  0
LINE
  8
0
  6
CONTINUOUS
 62
         7
  5
8F
 10
113.2370807453
 20
113.5745341615
 30
0.0
 11
112.2370807453
 21
112.5745341615
 31
0.0
  0
LINE
  8
0
  6
CONTINUOUS
 62
         7
  5
90
 10
113.2370807453
 20
113.5745341615
 30
0.0
 11
128.1370807453
 21
113.5745341615
 31
0.0
  0
LINE
  8
0
  6
CONTINUOUS
 62
         7
  5
91
 10
129.1370807453
 20
112.5745341615
 30
0.0
 11
128.1370807453
 21
113.5745341615
 31
0.0
  0
LINE
  8
0
  6
CONTINUOUS
 62
         7
  5
92
 10
129.1370807453
 20
108.5745341615
 30
0.0
 11
129.1370807453
 21
112.5745341615
 31
0.0
  0
LINE
  8
0
  6
CONTINUOUS
 62
         7
  5
93
 10
125.9370807453
 20
108.5745341615
 30
0.0
 11
129.1370807453
 21
108.5745341615
 31
0.0
  0
LINE
  8
0
  6
CONTINUOUS
 62
         7
  5
94
 10
125.9370807453
 20
101.5745341615
 30
0.0
 11
125.9370807453
 21
108.5745341615
 31
0.0
  0
LINE
  8
0
  6
CONTINUOUS
 62
         7
  5
95
 10
140.4370807453
 20
101.5745341615
 30
0.0
 11
125.9370807453
 21
101.5745341615
 31
0.0
  0
LINE
  8
0
  6
CONTINUOUS
 62
         7
  5
96
 10
140.4370807453
 20
108.5745341615
 30
0.0
 11
140.4370807453
 21
101.5745341615
 31
0.0
  0
LINE
  8
0
  6
CONTINUOUS
 62
         7
  5
97
 10
137.2370807453
 20
108.5745341615
 30
0.0
 11
140.4370807453
 21
108.5745341615
 31
0.0
  0
LINE
  8
0
  6
CONTINUOUS
 62
         7
  5
98
 10
137.2370807453
 20
112.5745341615
 30
0.0
 11
137.2370807453
 21
108.5745341615
 31
0.0
  0
LINE
  8
0
  6
CONTINUOUS
 62
         7
  5
99
 10
138.2370807453
 20
113.5745341615
 30
0.0
 11
137.2370807453
 21
112.5745341615
 31
0.0
  0
LINE
  8
0
  6
CONTINUOUS
 62
         7
  5
9A
 10
43.1870807453
 20
93.5745341615
 30
0.0
 11
21.6870807453
 21
93.5745341615
 31
0.0
  0
LINE
  8
0
  6
CONTINUOUS
 62
         7
  5
9B
 10
248.1870807453
 20
93.5745341615
 30
0.0
 11
269.6870807453
 21
93.5745341615
 31
0.0
  0
LINE
  8
0
  6
CONTINUOUS
 62
         7
  5
9C
 10
269.6870807453
 20
93.5745341615
 30
0.0
 11
270.6870807453
 21
94.5745341615
 31
0.0
  0
LINE
  8
0
  6
CONTINUOUS
 62
         7
  5
9D
 10
270.6870807453
 20
94.5745341615
 30
0.0
 11
270.6870807453
 21
112.5745341615
 31
0.0
  0
LINE
  8
0
  6
CONTINUOUS
 62
         7
  5
9E
 10
270.6870807453
 20
112.5745341615
 30
0.0
 11
269.6870807453
 21
113.5745341615
 31
0.0
  0
LINE
  8
0
  6
CONTINUOUS
 62
         7
  5
9F
 10
153.1370807453
 20
113.5745341615
 30
0.0
 11
138.2370807453
 21
113.5745341615
 31
0.0
  0
LINE
  8
0
  6
CONTINUOUS
 62
         7
  5
A0
 10
269.6870807453
 20
113.5745341615
 30
0.0
 11
263.2370807453
 21
113.5745341615
 31
0.0
  0
LINE
  8
0
  6
CONTINUOUS
 62
         7
  5
A1
 10
198.1870807453
 20
93.5745341615
 30
0.0
 11
243.1870807453
 21
93.5745341615
 31
0.0
  0
LINE
  8
0
  6
CONTINUOUS
 62
         7
  5
A2
 10
253.1370807453
 20
113.5745341615
 30
0.0
 11
238.2370807453
 21
113.5745341615
 31
0.0
  0
LINE
  8
0
  6
CONTINUOUS
 62
         7
  5
A3
 10
228.1370807453
 20
113.5745341615
 30
0.0
 11
213.2370807453
 21
113.5745341615
 31
0.0
  0
LINE
  8
0
  6
CONTINUOUS
 62
         7
  5
A4
 10
203.1370807453
 20
113.5745341615
 30
0.0
 11
188.2370807453
 21
113.5745341615
 31
0.0
  0
LINE
  8
0
  6
CONTINUOUS
 62
         7
  5
A5
 10
178.1370807453
 20
113.5745341615
 30
0.0
 11
163.2370807453
 21
113.5745341615
 31
0.0
  0
LINE
  8
0
  6
CONTINUOUS
 62
         7
  5
A6
 10
148.1870807453
 20
93.5745341615
 30
0.0
 11
193.1870807453
 21
93.5745341615
 31
0.0
  0
ENDSEC
  0
EOF
