  0
SECTION
  2
HEADER
  9
$ACADVER
  1
AC1009
  9
$INSBASE
 10
0.0
 20
0.0
 30
0.0
  9
$EXTMIN
 10
0.0
 20
0.0
 30
0.0
  9
$EXTMAX
 10
297.0
 20
210.0
 30
0.0
  9
$LIMMIN
 10
0.0
 20
0.0
  9
$LIMMAX
 10
0.0
 20
0.0
  9
$ORTHOMODE
 70
         0
  9
$REGENMODE
 70
         1
  9
$FILLMODE
 70
         1
  9
$QTEXTMODE
 70
         0
  9
$MIRRTEXT
 70
         1
  9
$DRAGMODE
 70
         2
  9
$LTSCALE
 40
1.0
  9
$OSMODE
 70
         0
  9
$ATTMODE
 70
         1
  9
$TEXTSIZE
 40
2.6458333333
  9
$TRACEWID
 40
0.05
  9
$TEXTSTYLE
  7
STANDARD
  9
$CLAYER
  8
0
  9
$CELTYPE
  6
CONTINUOUS
  9
$CECOLOR
 62
       256
  9
$DIMSCALE
 40
1.0
  9
$DIMASZ
 40
2.5
  9
$DIMEXO
 40
0.1
  9
$DIMDLI
 40
0.38
  9
$DIMRND
 40
0.0
  9
$DIMDLE
 40
1.0
  9
$DIMEXE
 40
0.18
  9
$DIMTP
 40
0.0
  9
$DIMTM
 40
0.0
  9
$DIMTXT
 40
2.6458333333
  9
$DIMCEN
 40
0.09
  9
$DIMTSZ
 40
0.0
  9
$DIMTOL
 70
         0
  9
$DIMLIM
 70
         0
  9
$DIMTIH
 70
         1
  9
$DIMTOH
 70
         1
  9
$DIMSE1
 70
         0
  9
$DIMSE2
 70
         0
  9
$DIMTAD
 70
         1
  9
$DIMZIN
 70
         0
  9
$DIMBLK
  1

  9
$DIMASO
 70
         1
  9
$DIMSHO
 70
         1
  9
$DIMPOST
  1

  9
$DIMAPOST
  1

  9
$DIMALT
 70
         0
  9
$DIMALTD
 70
         2
  9
$DIMALTF
 40
0.0394
  9
$DIMLFAC
 40
1.0
  9
$DIMTOFL
 70
         0
  9
$DIMTVP
 40
0.0
  9
$DIMTIX
 70
         0
  9
$DIMSOXD
 70
         0
  9
$DIMSAH
 70
         0
  9
$DIMBLK1
  1

  9
$DIMBLK2
  1

  9
$DIMSTYLE
  2
STANDARD
  9
$DIMCLRD
 70
         0
  9
$DIMCLRE
 70
         0
  9
$DIMCLRT
 70
         0
  9
$DIMTFAC
 40
1.0
  9
$DIMGAP
 40
0.1
  9
$LUNITS
 70
         2
  9
$LUPREC
 70
         1
  9
$AXISMODE
 70
         0
  9
$AXISUNIT
 10
0.0
 20
0.0
  9
$SKETCHINC
 40
0.1
  9
$FILLETRAD
 40
0.0
  9
$AUNITS
 70
         0
  9
$AUPREC
 70
         2
  9
$MENU
  1
acad
  9
$ELEVATION
 40
0.0
  9
$PELEVATION
 40
0.0
  9
$THICKNESS
 40
0.0
  9
$LIMCHECK
 70
         0
  9
$BLIPMODE
 70
         1
  9
$CHAMFERA
 40
0.0
  9
$CHAMFERB
 40
0.0
  9
$SKPOLY
 70
         0
  9
$TDCREATE
 40
0.000000000
  9
$TDUPDATE
 40
0.000000000
  9
$TDINDWG
 40
0.0000000000
  9
$TDUSRTIMER
 40
0.0000000000
  9
$USRTIMER
 70
         1
  9
$ANGBASE
 50
0.0
  9
$ANGDIR
 70
         0
  9
$PDMODE
 70
         0
  9
$PDSIZE
 40
-1.0
  9
$PLINEWID
 40
0.0
  9
$COORDS
 70
         0
  9
$SPLFRAME
 70
         0
  9
$SPLINETYPE
 70
         6
  9
$SPLINESEGS
 70
         8
  9
$ATTDIA
 70
         0
  9
$ATTREQ
 70
         1
  9
$HANDLING
 70
         1
  9
$HANDSEED
  5
B6
  9
$SURFTAB1
 70
         6
  9
$SURFTAB2
 70
         6
  9
$SURFTYPE
 70
         6
  9
$SURFU
 70
         6
  9
$SURFV
 70
         6
  9
$UCSNAME
  2

  9
$UCSORG
 10
0.0
 20
0.0
 30
0.0
  9
$UCSXDIR
 10
1.0
 20
0.0
 30
0.0
  9
$UCSYDIR
 10
0.0
 20
1.0
 30
0.0
  9
$PUCSNAME
  2

  9
$PUCSORG
 10
0.0
 20
0.0
 30
0.0
  9
$PUCSXDIR
 10
1.0
 20
0.0
 30
0.0
  9
$PUCSYDIR
 10
0.0
 20
1.0
 30
0.0
  9
$USERI1
 70
         0
  9
$USERI2
 70
         0
  9
$USERI3
 70
         0
  9
$USERI4
 70
         0
  9
$USERI5
 70
         0
  9
$USERR1
 40
0.0
  9
$USERR2
 40
0.0
  9
$USERR3
 40
0.0
  9
$USERR4
 40
0.0
  9
$USERR5
 40
0.0
  9
$WORLDVIEW
 70
         1
  9
$SHADEDGE
 70
         3
  9
$SHADEDIF
 70
        70
  9
$TILEMODE
 70
         1
  9
$MAXACTVP
 70
        16
  9
$PINSBASE
 10
0.0
 20
0.0
 30
0.0
  9
$PLIMCHECK
 70
         0
  9
$PEXTMIN
 10
1.0000000000E+20
 20
1.0000000000E+20
 30
1.0000000000E+20
  9
$PEXTMAX
 10
-1.0000000000E+20
 20
-1.0000000000E+20
 30
-1.0000000000E+20
  9
$PLIMMIN
 10
0.0
 20
0.0
  9
$PLIMMAX
 10
12.0
 20
9.0
  9
$UNITMODE
 70
         0
  9
$VISRETAIN
 70
         0
  9
$PLINEGEN
 70
         1
  9
$PSLTSCALE
 70
         1
  9
$TREEDEPTH
 70
      3020
  9
$DWGCODEPAGE
  3
ansi_1252
  0
ENDSEC
  0
SECTION
  2
TABLES
  0
TABLE
  2
VPORT
 70
         1
  0
VPORT
  2
*ACTIVE
 70
         0
 10
0.0
 20
0.0
 11
1.0
 21
1.0
 12
148.5
 22
105.0
 13
0.0
 23
0.0
 14
1.0
 24
1.0
 15
0.0
 25
0.0
 16
0.0
 26
0.0
 36
1.0
 17
0.0
 27
0.0
 37
0.0
 40
210.0
 41
0.7070707071
 42
50.0
 43
0.0
 44
0.0
 50
0.0
 51
0.0
 71
         0
 72
      2000
 73
         1
 74
         1
 75
         0
 76
         0
 77
         0
 78
         0
  0
ENDTAB
  0
TABLE
  2
LTYPE
 70
         7
  0
LTYPE
  2
CONTINUOUS
 70
        64
  3
Solid line
 72
        65
 73
         0
 40
0.0
  0
LTYPE
  2
CONTINUOUS
 70
        64
  3
Solid line
 72
        65
 73
         1
 40
60.96
 49
60.96
  0
LTYPE
  2
HIDDEN
 70
        64
  3
Hidden __ __ __ __ __ __ __ __ __ __ __ __ __ __
 72
        65
 73
         2
 40
1.905
 49
1.27
 49
-0.635
  0
LTYPE
  2
PHANTOM
 70
        64
  3
Phantom ______  __  __  ______  __  __  ______
 72
        65
 73
         6
 40
12.7
 49
6.35
 49
-1.27
 49
1.27
 49
-1.27
 49
1.27
 49
-1.27
  0
LTYPE
  2
CENTER
 70
        64
  3
Center ____ _ ____ _ ____ _ ____ _ ____ _ ____
 72
        65
 73
         4
 40
10.16
 49
6.35
 49
-1.27
 49
1.27
 49
-1.27
  0
LTYPE
  2
CENTERX2
 70
        64
  3
Center (2x) ________  __  ________  __  _____
 72
        65
 73
         4
 40
20.32
 49
12.7
 49
-2.54
 49
2.54
 49
-2.54
  0
LTYPE
  2
DOT2
 70
        64
  3
Dot (.5x) ........................................
 72
        65
 73
         2
 40
0.635
 49
0.0
 49
-0.635
  0
ENDTAB
  0
TABLE
  2
LAYER
 70
         2
  0
LAYER
  2
0
 70
         0
 62
         7
  6
CONTINUOUS
  0
LAYER
  2
DEFPOINTS
 70
         0
 62
         7
  6
CONTINUOUS
  0
ENDTAB
  0
TABLE
  2
STYLE
 70
         1
  0
STYLE
  2
STANDARD
 70
         0
 40
0.0
 41
1.0
 50
0.0
 71
         0
 42
0.0
  3
txt
  4

  0
ENDTAB
  0
TABLE
  2
VIEW
 70
         0
  0
ENDTAB
  0
TABLE
  2
UCS
 70
         0
  0
ENDTAB
  0
TABLE
  2
APPID
 70
         1
  0
APPID
  2
ACAD
 70
         0
  0
ENDTAB
  0
TABLE
  2
DIMSTYLE
 70
         1
  0
DIMSTYLE
  2
STANDARD
 70
         0
  3

  4

  5

  6

  7

 40
1.0
 41
0.18
 42
0.0625
 43
0.38
 44
0.18
 45
0.0
 46
0.0
 47
0.0
 48
0.0
 71
         0
 72
         0
 73
         1
 74
         1
 75
         0
 76
         0
 77
         0
 78
         0
140
0.18
141
0.09
142
0.0
143
25.4
144
1.0
145
0.0
146
1.0
147
0.09
170
         0
171
         2
172
         0
173
         0
174
         0
175
         0
176
         0
177
         0
178
         0
  0
ENDTAB
  0
ENDSEC
  0
SECTION
  2
BLOCKS
  0
ENDSEC
  0
SECTION
  2
ENTITIES
  0
LINE
  8
0
  6
CONTINUOUS
 62
         7
  5
27
 10
170.0628575146
 20
104.8773292056
 30
0.0
 11
163.0628575146
 21
104.8773292056
 31
0.0
  0
LINE
  8
0
  6
CONTINUOUS
 62
         7
  5
28
 10
163.0628575146
 20
119.3773292298
 30
0.0
 11
163.0628575146
 21
104.8773292056
 31
0.0
  0
LINE
  8
0
  6
CONTINUOUS
 62
         7
  5
29
 10
170.0628579229
 20
119.3773292298
 30
0.0
 11
163.0628575146
 21
119.3773292298
 31
0.0
  0
ARC
  8
0
  6
CONTINUOUS
 62
         7
  5
2A
 10
170.0628579229
 20
120.3773292298
 30
0.0
 40
1.0
 50
270.0
 51
0.0
  0
LINE
  8
0
  6
CONTINUOUS
 62
         7
  5
2B
 10
171.0628579229
 20
126.7363642298
 30
0.0
 11
171.0628579229
 21
120.3773292298
 31
0.0
  0
ARC
  8
0
  6
CONTINUOUS
 62
         7
  5
2C
 10
170.062857765
 20
126.7363642298
 30
0.0
 40
1.0000001579
 50
0.0
 51
110.354405231
  0
ARC
  8
0
  6
CONTINUOUS
 62
         7
  5
2D
 10
168.0628578199
 20
132.1273290818
 30
0.0
 40
4.75
 50
245.3544064098
 51
290.354405231
  0
ARC
  8
0
  6
CONTINUOUS
 62
         7
  5
2E
 10
165.6650838493
 20
126.9011281458
 30
0.0
 40
0.9999996728
 50
65.3544064098
 51
134.9999974559
  0
LINE
  8
0
  6
CONTINUOUS
 62
         7
  5
2F
 10
153.6975648308
 20
116.347823227
 30
0.0
 11
164.9579773308
 21
127.608234727
 31
0.0
  0
ARC
  8
0
  6
CONTINUOUS
 62
         7
  5
30
 10
154.4046715199
 20
115.6407164752
 30
0.0
 40
0.9999999141
 50
134.9999974559
 51
208.9866052098
  0
ARC
  8
0
  6
CONTINUOUS
 62
         7
  5
31
 10
148.0628571741
 20
112.1273292836
 30
0.0
 40
6.25
 50
331.0133947902
 51
28.9866052098
  0
ARC
  8
0
  6
CONTINUOUS
 62
         7
  5
32
 10
154.4046715199
 20
108.613942092
 30
0.0
 40
0.9999999141
 50
151.0133947902
 51
225.0
  0
LINE
  8
0
  6
CONTINUOUS
 62
         7
  5
33
 10
153.6975647994
 20
107.9068353716
 30
0.0
 11
164.9579767994
 21
96.6464233716
 31
0.0
  0
ARC
  8
0
  6
CONTINUOUS
 62
         7
  5
34
 10
165.6650835993
 20
97.3535301714
 30
0.0
 40
1.0000000264
 50
225.0
 51
294.6455935902
  0
ARC
  8
0
  6
CONTINUOUS
 62
         7
  5
35
 10
168.0628577173
 20
92.1273289141
 30
0.0
 40
4.75
 50
69.6455913031
 51
114.6455935902
  0
ARC
  8
0
  6
CONTINUOUS
 62
         7
  5
36
 10
170.0628578255
 20
97.5182932056
 30
0.0
 40
0.9999996891
 50
249.6455913031
 51
0.0
  0
LINE
  8
0
  6
CONTINUOUS
 62
         7
  5
37
 10
171.0628575146
 20
103.8773292056
 30
0.0
 11
171.0628575146
 21
97.5182932056
 31
0.0
  0
ARC
  8
0
  6
CONTINUOUS
 62
         7
  5
38
 10
170.0628575146
 20
103.8773292056
 30
0.0
 40
1.0
 50
0.0
 51
90.0
  0
ARC
  8
0
  6
CONTINUOUS
 62
         7
  5
39
 10
148.0628571741
 20
112.1273292836
 30
0.0
 40
6.2500008815
 50
241.013400298
 51
298.9866013801
  0
ARC
  8
0
  6
CONTINUOUS
 62
         7
  5
3A
 10
144.549469953
 20
105.7855134464
 30
0.0
 40
1.0000003515
 50
61.013400298
 51
134.9999974559
  0
LINE
  8
0
  6
CONTINUOUS
 62
         7
  5
3B
 10
143.8423629547
 20
106.4926205075
 30
0.0
 11
132.5819509547
 21
95.2322095075
 31
0.0
  0
ARC
  8
0
  6
CONTINUOUS
 62
         7
  5
3C
 10
133.2890577231
 20
94.5251026763
 30
0.0
 40
1.0000000264
 50
134.9999974559
 51
204.6455935902
  0
ARC
  8
0
  6
CONTINUOUS
 62
         7
  5
3D
 10
128.0628564658
 20
92.1273285583
 30
0.0
 40
4.75
 50
339.6455913031
 51
24.6455935902
  0
ARC
  8
0
  6
CONTINUOUS
 62
         7
  5
3E
 10
133.4538207573
 20
90.1273284501
 30
0.0
 40
0.9999996891
 50
159.6455913031
 51
270.0
  0
LINE
  8
0
  6
CONTINUOUS
 62
         7
  5
3F
 10
139.8128567573
 20
89.127328761
 30
0.0
 11
133.4538207573
 21
89.127328761
 31
0.0
  0
ARC
  8
0
  6
CONTINUOUS
 62
         7
  5
40
 10
139.8128567573
 20
90.127328761
 30
0.0
 40
1.0
 50
270.0
 51
0.0
  0
LINE
  8
0
  6
CONTINUOUS
 62
         7
  5
41
 10
140.8128567573
 20
90.127328761
 30
0.0
 11
140.8128567573
 21
97.127328761
 31
0.0
  0
LINE
  8
0
  6
CONTINUOUS
 62
         7
  5
42
 10
155.3128578164
 20
97.127328761
 30
0.0
 11
140.8128567573
 21
97.127328761
 31
0.0
  0
LINE
  8
0
  6
CONTINUOUS
 62
         7
  5
43
 10
155.3128578164
 20
90.127328793
 30
0.0
 11
155.3128578164
 21
97.127328761
 31
0.0
  0
ARC
  8
0
  6
CONTINUOUS
 62
         7
  5
44
 10
156.3128578164
 20
90.127328793
 30
0.0
 40
1.0
 50
180.0
 51
270.0
  0
LINE
  8
0
  6
CONTINUOUS
 62
         7
  5
45
 10
162.6718928164
 20
89.127328793
 30
0.0
 11
156.3128578164
 21
89.127328793
 31
0.0
  0
ARC
  8
0
  6
CONTINUOUS
 62
         7
  5
46
 10
162.6718928164
 20
90.1273289508
 30
0.0
 40
1.0000001579
 50
270.0
 51
20.354405231
  0
ARC
  8
0
  6
CONTINUOUS
 62
         7
  5
47
 10
168.0628577173
 20
92.1273289141
 30
0.0
 40
4.7500000522
 50
155.3544105459
 51
200.354405231
  0
ARC
  8
0
  6
CONTINUOUS
 62
         7
  5
48
 10
162.8366565608
 20
94.5251025292
 30
0.0
 40
0.9999996728
 50
335.3544105459
 51
45.0
  0
LINE
  8
0
  6
CONTINUOUS
 62
         7
  5
49
 10
152.2833516106
 20
106.492620579
 30
0.0
 11
163.5437631106
 21
95.232209079
 31
0.0
  0
ARC
  8
0
  6
CONTINUOUS
 62
         7
  5
4A
 10
151.5762445809
 20
105.7855135493
 30
0.0
 40
1.0000003515
 50
45.0
 51
118.9866013801
  0
ARC
  8
0
  6
CONTINUOUS
 62
         7
  5
4B
 10
148.0628571741
 20
112.1273292836
 30
0.0
 40
6.2500010173
 50
151.0133954145
 51
208.9866013801
  0
ARC
  8
0
  6
CONTINUOUS
 62
         7
  5
4C
 10
141.721041825
 20
115.6407169407
 30
0.0
 40
1.0
 50
331.0133954145
 51
44.9999988866
  0
LINE
  8
0
  6
CONTINUOUS
 62
         7
  5
4D
 10
142.4281486199
 20
116.3478237081
 30
0.0
 11
131.1677373388
 21
127.608235427
 31
0.0
  0
ARC
  8
0
  6
CONTINUOUS
 62
         7
  5
4E
 10
130.4606307752
 20
126.9011288909
 30
0.0
 40
0.9999996728
 50
44.9999988866
 51
114.6455935902
  0
ARC
  8
0
  6
CONTINUOUS
 62
         7
  5
4F
 10
128.0628568046
 20
132.1273298268
 30
0.0
 40
4.75
 50
249.645594769
 51
294.6455935902
  0
ARC
  8
0
  6
CONTINUOUS
 62
         7
  5
50
 10
126.0628568595
 20
126.7363649749
 30
0.0
 40
1.0000001579
 50
69.645594769
 51
180.0
  0
LINE
  8
0
  6
CONTINUOUS
 62
         7
  5
51
 10
125.0628567016
 20
120.3773299749
 30
0.0
 11
125.0628567016
 21
126.7363649749
 31
0.0
  0
ARC
  8
0
  6
CONTINUOUS
 62
         7
  5
52
 10
126.0628567016
 20
120.3773299749
 30
0.0
 40
1.0
 50
180.0
 51
270.0
  0
LINE
  8
0
  6
CONTINUOUS
 62
         7
  5
53
 10
126.0628567016
 20
119.3773299749
 30
0.0
 11
133.0628566686
 21
119.3773299749
 31
0.0
  0
LINE
  8
0
  6
CONTINUOUS
 62
         7
  5
54
 10
133.0628566686
 20
104.8773288497
 30
0.0
 11
133.0628566686
 21
119.3773299749
 31
0.0
  0
LINE
  8
0
  6
CONTINUOUS
 62
         7
  5
55
 10
126.0628566686
 20
104.8773288497
 30
0.0
 11
133.0628566686
 21
104.8773288497
 31
0.0
  0
ARC
  8
0
  6
CONTINUOUS
 62
         7
  5
56
 10
126.0628566686
 20
103.8773288497
 30
0.0
 40
1.0
 50
90.0
 51
180.0
  0
LINE
  8
0
  6
CONTINUOUS
 62
         7
  5
57
 10
125.0628566686
 20
97.5182928497
 30
0.0
 11
125.0628566686
 21
103.8773288497
 31
0.0
  0
ARC
  8
0
  6
CONTINUOUS
 62
         7
  5
58
 10
126.0628563577
 20
97.5182928497
 30
0.0
 40
0.9999996891
 50
180.0
 51
290.3544086969
  0
ARC
  8
0
  6
CONTINUOUS
 62
         7
  5
59
 10
128.0628564658
 20
92.1273285583
 30
0.0
 40
4.75
 50
65.3544064098
 51
110.3544086969
  0
ARC
  8
0
  6
CONTINUOUS
 62
         7
  5
5A
 10
130.4606305839
 20
97.3535298156
 30
0.0
 40
1.0000000264
 50
245.3544064098
 51
315.0000025441
  0
LINE
  8
0
  6
CONTINUOUS
 62
         7
  5
5B
 10
142.4281484151
 20
107.9068350471
 30
0.0
 11
131.1677374151
 21
96.6464230471
 31
0.0
  0
ARC
  8
0
  6
CONTINUOUS
 62
         7
  5
5C
 10
141.7210414931
 20
108.6139419063
 30
0.0
 40
1.0000001547
 50
315.0000025441
 51
28.9866013801
  0
CIRCLE
  8
0
  6
CONTINUOUS
 62
         7
  5
5D
 10
128.0628564658
 20
92.1273285583
 30
0.0
 40
2.75
  0
CIRCLE
  8
0
  6
CONTINUOUS
 62
         7
  5
5E
 10
168.0628577173
 20
92.1273289141
 30
0.0
 40
2.75
  0
ARC
  8
0
  6
CONTINUOUS
 62
         7
  5
5F
 10
148.0628571741
 20
112.1273292836
 30
0.0
 40
6.25
 50
61.0133947902
 51
118.9866052098
  0
ARC
  8
0
  6
CONTINUOUS
 62
         7
  5
60
 10
151.5762443657
 20
118.4691436294
 30
0.0
 40
0.9999999141
 50
241.0133947902
 51
315.0000025441
  0
LINE
  8
0
  6
CONTINUOUS
 62
         7
  5
61
 10
152.2833511175
 20
117.7620369404
 30
0.0
 11
163.5437626175
 21
129.0224494404
 31
0.0
  0
ARC
  8
0
  6
CONTINUOUS
 62
         7
  5
62
 10
162.8366560363
 20
129.7295559588
 30
0.0
 40
0.9999996728
 50
315.0000025441
 51
24.6455823914
  0
ARC
  8
0
  6
CONTINUOUS
 62
         7
  5
63
 10
162.671892577
 20
134.1273291719
 30
0.0
 40
1.0000001579
 50
339.645594769
 51
90.0
  0
LINE
  8
0
  6
CONTINUOUS
 62
         7
  5
64
 10
156.312857577
 20
135.1273293298
 30
0.0
 11
162.671892577
 21
135.1273293298
 31
0.0
  0
ARC
  8
0
  6
CONTINUOUS
 62
         7
  5
65
 10
156.312857577
 20
134.1273293298
 30
0.0
 40
1.0
 50
90.0
 51
180.0
  0
LINE
  8
0
  6
CONTINUOUS
 62
         7
  5
66
 10
155.312857577
 20
134.1273293298
 30
0.0
 11
155.312857577
 21
127.1273296241
 31
0.0
  0
LINE
  8
0
  6
CONTINUOUS
 62
         7
  5
67
 10
140.8128570961
 20
127.1273296241
 30
0.0
 11
155.312857577
 21
127.1273296241
 31
0.0
  0
LINE
  8
0
  6
CONTINUOUS
 62
         7
  5
68
 10
140.8128570961
 20
134.1273296241
 30
0.0
 11
140.8128570961
 21
127.1273296241
 31
0.0
  0
ARC
  8
0
  6
CONTINUOUS
 62
         7
  5
69
 10
139.8128570961
 20
134.1273296241
 30
0.0
 40
1.0
 50
0.0
 51
90.0
  0
LINE
  8
0
  6
CONTINUOUS
 62
         7
  5
6A
 10
133.4538210961
 20
135.1273296241
 30
0.0
 11
139.8128570961
 21
135.1273296241
 31
0.0
  0
ARC
  8
0
  6
CONTINUOUS
 62
         7
  5
6B
 10
133.4538210961
 20
134.127329935
 30
0.0
 40
0.9999996891
 50
90.0
 51
200.3544086969
  0
ARC
  8
0
  6
CONTINUOUS
 62
         7
  5
6C
 10
128.0628568046
 20
132.1273298268
 30
0.0
 40
4.75
 50
335.3544064098
 51
20.3544086969
  0
ARC
  8
0
  6
CONTINUOUS
 62
         7
  5
6D
 10
133.2890580619
 20
129.7295557088
 30
0.0
 40
1.0000000264
 50
155.3544064098
 51
225.0
  0
LINE
  8
0
  6
CONTINUOUS
 62
         7
  5
6E
 10
143.8423632621
 20
117.762036909
 30
0.0
 11
132.5819512621
 21
129.022448909
 31
0.0
  0
ARC
  8
0
  6
CONTINUOUS
 62
         7
  5
6F
 10
144.5494699825
 20
118.4691436294
 30
0.0
 40
0.9999999141
 50
225.0
 51
298.9866052098
  0
CIRCLE
  8
0
  6
CONTINUOUS
 62
         7
  5
70
 10
128.0628568046
 20
132.1273298268
 30
0.0
 40
2.75
  0
CIRCLE
  8
0
  6
CONTINUOUS
 62
         7
  5
71
 10
168.0628578199
 20
132.1273290818
 30
0.0
 40
2.75
  0
CIRCLE
  8
0
  6
CONTINUOUS
 62
         7
  5
72
 10
148.0628571741
 20
112.1273292836
 30
0.0
 40
4.25
  0
ARC
  8
0
  6
CONTINUOUS
 62
         7
  5
73
 10
168.0628578199
 20
132.1273290818
 30
0.0
 40
4.7500004169
 50
159.645594769
 51
204.6455823914
  0
LINE
  8
0
  6
CONTINUOUS
 62
         7
  5
74
 10
171.0628577173
 20
108.8773289141
 30
0.0
 11
171.0628577173
 21
106.8773289141
 31
0.0
  0
LINE
  8
0
  6
CONTINUOUS
 62
         7
  5
75
 10
171.0628577173
 20
106.8773289141
 30
0.0
 11
165.0628577173
 21
106.8773289141
 31
0.0
  0
LINE
  8
0
  6
CONTINUOUS
 62
         7
  5
76
 10
165.0628577173
 20
117.3773289141
 30
0.0
 11
165.0628577173
 21
106.8773289141
 31
0.0
  0
LINE
  8
0
  6
CONTINUOUS
 62
         7
  5
77
 10
171.0628577173
 20
117.3773289141
 30
0.0
 11
165.0628577173
 21
117.3773289141
 31
0.0
  0
LINE
  8
0
  6
CONTINUOUS
 62
         7
  5
78
 10
171.0628577173
 20
117.3773289141
 30
0.0
 11
171.0628577173
 21
115.3773289141
 31
0.0
  0
LINE
  8
0
  6
CONTINUOUS
 62
         7
  5
79
 10
173.0628578199
 20
115.3773289141
 30
0.0
 11
171.0628577173
 21
115.3773289141
 31
0.0
  0
LINE
  8
0
  6
CONTINUOUS
 62
         7
  5
7A
 10
173.0628578199
 20
124.3273290818
 30
0.0
 11
173.0628578199
 21
115.3773289141
 31
0.0
  0
LINE
  8
0
  6
CONTINUOUS
 62
         7
  5
7B
 10
173.0628578199
 20
124.3273290818
 30
0.0
 11
172.7628578199
 21
124.6273290818
 31
0.0
  0
LINE
  8
0
  6
CONTINUOUS
 62
         7
  5
7C
 10
172.7628578199
 20
124.6273290818
 30
0.0
 11
173.0628578199
 21
124.9273290818
 31
0.0
  0
LINE
  8
0
  6
CONTINUOUS
 62
         7
  5
7D
 10
173.0628578199
 20
132.1273290818
 30
0.0
 11
173.0628578199
 21
124.9273290818
 31
0.0
  0
ARC
  8
0
  6
CONTINUOUS
 62
         7
  5
7E
 10
168.0628578199
 20
132.1273290818
 30
0.0
 40
5.0
 50
0.0
 51
90.0
  0
LINE
  8
0
  6
CONTINUOUS
 62
         7
  5
7F
 10
160.8628578199
 20
137.1273290818
 30
0.0
 11
168.0628578199
 21
137.1273290818
 31
0.0
  0
LINE
  8
0
  6
CONTINUOUS
 62
         7
  5
80
 10
160.5628576848
 20
136.8273289467
 30
0.0
 11
160.8628578199
 21
137.1273290818
 31
0.0
  0
LINE
  8
0
  6
CONTINUOUS
 62
         7
  5
81
 10
160.2628568046
 20
137.1273298268
 30
0.0
 11
160.5628576848
 21
136.8273289467
 31
0.0
  0
LINE
  8
0
  6
CONTINUOUS
 62
         7
  5
82
 10
151.3128568046
 20
137.1273298268
 30
0.0
 11
160.2628568046
 21
137.1273298268
 31
0.0
  0
LINE
  8
0
  6
CONTINUOUS
 62
         7
  5
83
 10
151.3128568046
 20
137.1273298268
 30
0.0
 11
151.3128568046
 21
135.1273298268
 31
0.0
  0
LINE
  8
0
  6
CONTINUOUS
 62
         7
  5
84
 10
151.3128568046
 20
135.1273298268
 30
0.0
 11
153.3128568046
 21
135.1273298268
 31
0.0
  0
LINE
  8
0
  6
CONTINUOUS
 62
         7
  5
85
 10
153.3128568046
 20
135.1273298268
 30
0.0
 11
153.3128568046
 21
129.1273298268
 31
0.0
  0
LINE
  8
0
  6
CONTINUOUS
 62
         7
  5
86
 10
142.8128568046
 20
129.1273298268
 30
0.0
 11
153.3128568046
 21
129.1273298268
 31
0.0
  0
LINE
  8
0
  6
CONTINUOUS
 62
         7
  5
87
 10
142.8128568046
 20
135.1273298268
 30
0.0
 11
142.8128568046
 21
129.1273298268
 31
0.0
  0
LINE
  8
0
  6
CONTINUOUS
 62
         7
  5
88
 10
142.8128568046
 20
135.1273298268
 30
0.0
 11
144.8128568046
 21
135.1273298268
 31
0.0
  0
LINE
  8
0
  6
CONTINUOUS
 62
         7
  5
89
 10
144.8128568046
 20
137.1273298268
 30
0.0
 11
144.8128568046
 21
135.1273298268
 31
0.0
  0
LINE
  8
0
  6
CONTINUOUS
 62
         7
  5
8A
 10
135.8628568046
 20
137.1273298268
 30
0.0
 11
144.8128568046
 21
137.1273298268
 31
0.0
  0
LINE
  8
0
  6
CONTINUOUS
 62
         7
  5
8B
 10
135.8628568046
 20
137.1273298268
 30
0.0
 11
135.5628568046
 21
136.8273298268
 31
0.0
  0
LINE
  8
0
  6
CONTINUOUS
 62
         7
  5
8C
 10
135.5628568046
 20
136.8273298268
 30
0.0
 11
135.2628568046
 21
137.1273298268
 31
0.0
  0
LINE
  8
0
  6
CONTINUOUS
 62
         7
  5
8D
 10
128.0628568046
 20
137.1273298268
 30
0.0
 11
135.2628568046
 21
137.1273298268
 31
0.0
  0
ARC
  8
0
  6
CONTINUOUS
 62
         7
  5
8E
 10
128.0628568046
 20
132.1273298268
 30
0.0
 40
5.0
 50
90.0
 51
180.0
  0
LINE
  8
0
  6
CONTINUOUS
 62
         7
  5
8F
 10
123.0628568046
 20
132.1273298268
 30
0.0
 11
123.0628568046
 21
124.9273298268
 31
0.0
  0
LINE
  8
0
  6
CONTINUOUS
 62
         7
  5
90
 10
123.3628568046
 20
124.6273298268
 30
0.0
 11
123.0628568046
 21
124.9273298268
 31
0.0
  0
LINE
  8
0
  6
CONTINUOUS
 62
         7
  5
91
 10
123.0628568046
 20
124.3273298268
 30
0.0
 11
123.3628568046
 21
124.6273298268
 31
0.0
  0
LINE
  8
0
  6
CONTINUOUS
 62
         7
  5
92
 10
123.0628568046
 20
124.3273298268
 30
0.0
 11
123.0628568046
 21
115.3773298268
 31
0.0
  0
LINE
  8
0
  6
CONTINUOUS
 62
         7
  5
93
 10
123.0628568046
 20
115.3773298268
 30
0.0
 11
125.0628568046
 21
115.3773298268
 31
0.0
  0
LINE
  8
0
  6
CONTINUOUS
 62
         7
  5
94
 10
125.0628568046
 20
115.3773298268
 30
0.0
 11
125.0628568046
 21
117.3773298268
 31
0.0
  0
LINE
  8
0
  6
CONTINUOUS
 62
         7
  5
95
 10
125.0628568046
 20
117.3773298268
 30
0.0
 11
131.0628564658
 21
117.3773298268
 31
0.0
  0
LINE
  8
0
  6
CONTINUOUS
 62
         7
  5
96
 10
131.0628564658
 20
106.8773285583
 30
0.0
 11
131.0628564658
 21
117.3773298268
 31
0.0
  0
LINE
  8
0
  6
CONTINUOUS
 62
         7
  5
97
 10
125.0628564658
 20
106.8773285583
 30
0.0
 11
131.0628564658
 21
106.8773285583
 31
0.0
  0
LINE
  8
0
  6
CONTINUOUS
 62
         7
  5
98
 10
125.0628564658
 20
106.8773285583
 30
0.0
 11
125.0628564658
 21
108.8773285583
 31
0.0
  0
LINE
  8
0
  6
CONTINUOUS
 62
         7
  5
99
 10
123.0628564658
 20
108.8773285583
 30
0.0
 11
125.0628564658
 21
108.8773285583
 31
0.0
  0
LINE
  8
0
  6
CONTINUOUS
 62
         7
  5
9A
 10
123.0628564658
 20
108.8773285583
 30
0.0
 11
123.0628564658
 21
99.9273285583
 31
0.0
  0
LINE
  8
0
  6
CONTINUOUS
 62
         7
  5
9B
 10
123.0628564658
 20
99.9273285583
 30
0.0
 11
123.3628564658
 21
99.6273285583
 31
0.0
  0
LINE
  8
0
  6
CONTINUOUS
 62
         7
  5
9C
 10
123.3628564658
 20
99.6273285583
 30
0.0
 11
123.0628564658
 21
99.3273285583
 31
0.0
  0
LINE
  8
0
  6
CONTINUOUS
 62
         7
  5
9D
 10
123.0628564658
 20
99.3273285583
 30
0.0
 11
123.0628564658
 21
92.1273285583
 31
0.0
  0
ARC
  8
0
  6
CONTINUOUS
 62
         7
  5
9E
 10
128.0628564658
 20
92.1273285583
 30
0.0
 40
5.0
 50
180.0
 51
270.0
  0
LINE
  8
0
  6
CONTINUOUS
 62
         7
  5
9F
 10
128.0628564658
 20
87.1273285583
 30
0.0
 11
135.2628564658
 21
87.1273285583
 31
0.0
  0
LINE
  8
0
  6
CONTINUOUS
 62
         7
  5
A0
 10
135.5628564658
 20
87.4273285583
 30
0.0
 11
135.2628564658
 21
87.1273285583
 31
0.0
  0
LINE
  8
0
  6
CONTINUOUS
 62
         7
  5
A1
 10
135.8628564658
 20
87.1273285583
 30
0.0
 11
135.5628564658
 21
87.4273285583
 31
0.0
  0
LINE
  8
0
  6
CONTINUOUS
 62
         7
  5
A2
 10
135.8628564658
 20
87.1273285583
 30
0.0
 11
144.8128564658
 21
87.1273285583
 31
0.0
  0
LINE
  8
0
  6
CONTINUOUS
 62
         7
  5
A3
 10
144.8128564658
 20
87.1273285583
 30
0.0
 11
144.8128564658
 21
89.1273285583
 31
0.0
  0
LINE
  8
0
  6
CONTINUOUS
 62
         7
  5
A4
 10
144.8128564658
 20
89.1273285583
 30
0.0
 11
142.8128564658
 21
89.1273285583
 31
0.0
  0
LINE
  8
0
  6
CONTINUOUS
 62
         7
  5
A5
 10
142.8128564658
 20
89.1273285583
 30
0.0
 11
142.8128564658
 21
95.1273285583
 31
0.0
  0
LINE
  8
0
  6
CONTINUOUS
 62
         7
  5
A6
 10
153.3128564658
 20
95.1273285583
 30
0.0
 11
142.8128564658
 21
95.1273285583
 31
0.0
  0
LINE
  8
0
  6
CONTINUOUS
 62
         7
  5
A7
 10
153.3128564658
 20
89.1273285583
 30
0.0
 11
153.3128564658
 21
95.1273285583
 31
0.0
  0
LINE
  8
0
  6
CONTINUOUS
 62
         7
  5
A8
 10
153.3128564658
 20
89.1273285583
 30
0.0
 11
151.3128564658
 21
89.1273285583
 31
0.0
  0
LINE
  8
0
  6
CONTINUOUS
 62
         7
  5
A9
 10
151.3128564658
 20
87.1273285583
 30
0.0
 11
151.3128564658
 21
89.1273285583
 31
0.0
  0
LINE
  8
0
  6
CONTINUOUS
 62
         7
  5
AA
 10
151.3128564658
 20
87.1273285583
 30
0.0
 11
160.2628564658
 21
87.1273285583
 31
0.0
  0
LINE
  8
0
  6
CONTINUOUS
 62
         7
  5
AB
 10
160.2628564658
 20
87.1273285583
 30
0.0
 11
160.5628572695
 21
87.4273293619
 31
0.0
  0
LINE
  8
0
  6
CONTINUOUS
 62
         7
  5
AC
 10
160.5628572695
 20
87.4273293619
 30
0.0
 11
160.8628577173
 21
87.1273289141
 31
0.0
  0
LINE
  8
0
  6
CONTINUOUS
 62
         7
  5
AD
 10
160.8628577173
 20
87.1273289141
 30
0.0
 11
168.0628577173
 21
87.1273289141
 31
0.0
  0
ARC
  8
0
  6
CONTINUOUS
 62
         7
  5
AE
 10
168.0628577173
 20
92.1273289141
 30
0.0
 40
5.0
 50
270.0
 51
0.0
  0
LINE
  8
0
  6
CONTINUOUS
 62
         7
  5
AF
 10
173.0628577173
 20
99.3273289141
 30
0.0
 11
173.0628577173
 21
92.1273289141
 31
0.0
  0
LINE
  8
0
  6
CONTINUOUS
 62
         7
  5
B0
 10
172.7628577173
 20
99.6273289141
 30
0.0
 11
173.0628577173
 21
99.3273289141
 31
0.0
  0
LINE
  8
0
  6
CONTINUOUS
 62
         7
  5
B1
 10
173.0628577173
 20
99.9273289141
 30
0.0
 11
172.7628577173
 21
99.6273289141
 31
0.0
  0
LINE
  8
0
  6
CONTINUOUS
 62
         7
  5
B2
 10
173.0628577173
 20
108.8773289141
 30
0.0
 11
173.0628577173
 21
99.9273289141
 31
0.0
  0
LINE
  8
0
  6
CONTINUOUS
 62
         7
  5
B3
 10
173.0628577173
 20
108.8773289141
 30
0.0
 11
171.0628577173
 21
108.8773289141
 31
0.0
  0
ENDSEC
  0
EOF
