  0
SECTION
  2
HEADER
  9
$ACADVER
  1
AC1009
  9
$INSBASE
 10
0.0
 20
0.0
 30
0.0
  9
$EXTMIN
 10
0.0
 20
0.0
 30
0.0
  9
$EXTMAX
 10
297.0
 20
210.0
 30
0.0
  9
$LIMMIN
 10
0.0
 20
0.0
  9
$LIMMAX
 10
0.0
 20
0.0
  9
$ORTHOMODE
 70
         0
  9
$REGENMODE
 70
         1
  9
$FILLMODE
 70
         1
  9
$QTEXTMODE
 70
         0
  9
$MIRRTEXT
 70
         1
  9
$DRAGMODE
 70
         2
  9
$LTSCALE
 40
1.0
  9
$OSMODE
 70
         0
  9
$ATTMODE
 70
         1
  9
$TEXTSIZE
 40
2.6458333333
  9
$TRACEWID
 40
0.05
  9
$TEXTSTYLE
  7
STANDARD
  9
$CLAYER
  8
0
  9
$CELTYPE
  6
CONTINUOUS
  9
$CECOLOR
 62
       256
  9
$DIMSCALE
 40
1.0
  9
$DIMASZ
 40
2.5
  9
$DIMEXO
 40
0.1
  9
$DIMDLI
 40
0.38
  9
$DIMRND
 40
0.0
  9
$DIMDLE
 40
1.0
  9
$DIMEXE
 40
0.18
  9
$DIMTP
 40
0.0
  9
$DIMTM
 40
0.0
  9
$DIMTXT
 40
2.6458333333
  9
$DIMCEN
 40
0.09
  9
$DIMTSZ
 40
0.0
  9
$DIMTOL
 70
         0
  9
$DIMLIM
 70
         0
  9
$DIMTIH
 70
         1
  9
$DIMTOH
 70
         1
  9
$DIMSE1
 70
         0
  9
$DIMSE2
 70
         0
  9
$DIMTAD
 70
         1
  9
$DIMZIN
 70
         0
  9
$DIMBLK
  1

  9
$DIMASO
 70
         1
  9
$DIMSHO
 70
         1
  9
$DIMPOST
  1

  9
$DIMAPOST
  1

  9
$DIMALT
 70
         0
  9
$DIMALTD
 70
         2
  9
$DIMALTF
 40
0.0394
  9
$DIMLFAC
 40
1.0
  9
$DIMTOFL
 70
         0
  9
$DIMTVP
 40
0.0
  9
$DIMTIX
 70
         0
  9
$DIMSOXD
 70
         0
  9
$DIMSAH
 70
         0
  9
$DIMBLK1
  1

  9
$DIMBLK2
  1

  9
$DIMSTYLE
  2
STANDARD
  9
$DIMCLRD
 70
         0
  9
$DIMCLRE
 70
         0
  9
$DIMCLRT
 70
         0
  9
$DIMTFAC
 40
1.0
  9
$DIMGAP
 40
0.1
  9
$LUNITS
 70
         2
  9
$LUPREC
 70
         1
  9
$AXISMODE
 70
         0
  9
$AXISUNIT
 10
0.0
 20
0.0
  9
$SKETCHINC
 40
0.1
  9
$FILLETRAD
 40
0.0
  9
$AUNITS
 70
         0
  9
$AUPREC
 70
         2
  9
$MENU
  1
acad
  9
$ELEVATION
 40
0.0
  9
$PELEVATION
 40
0.0
  9
$THICKNESS
 40
0.0
  9
$LIMCHECK
 70
         0
  9
$BLIPMODE
 70
         1
  9
$CHAMFERA
 40
0.0
  9
$CHAMFERB
 40
0.0
  9
$SKPOLY
 70
         0
  9
$TDCREATE
 40
0.000000000
  9
$TDUPDATE
 40
0.000000000
  9
$TDINDWG
 40
0.0000000000
  9
$TDUSRTIMER
 40
0.0000000000
  9
$USRTIMER
 70
         1
  9
$ANGBASE
 50
0.0
  9
$ANGDIR
 70
         0
  9
$PDMODE
 70
         0
  9
$PDSIZE
 40
-1.0
  9
$PLINEWID
 40
0.0
  9
$COORDS
 70
         0
  9
$SPLFRAME
 70
         0
  9
$SPLINETYPE
 70
         6
  9
$SPLINESEGS
 70
         8
  9
$ATTDIA
 70
         0
  9
$ATTREQ
 70
         1
  9
$HANDLING
 70
         1
  9
$HANDSEED
  5
71
  9
$SURFTAB1
 70
         6
  9
$SURFTAB2
 70
         6
  9
$SURFTYPE
 70
         6
  9
$SURFU
 70
         6
  9
$SURFV
 70
         6
  9
$UCSNAME
  2

  9
$UCSORG
 10
0.0
 20
0.0
 30
0.0
  9
$UCSXDIR
 10
1.0
 20
0.0
 30
0.0
  9
$UCSYDIR
 10
0.0
 20
1.0
 30
0.0
  9
$PUCSNAME
  2

  9
$PUCSORG
 10
0.0
 20
0.0
 30
0.0
  9
$PUCSXDIR
 10
1.0
 20
0.0
 30
0.0
  9
$PUCSYDIR
 10
0.0
 20
1.0
 30
0.0
  9
$USERI1
 70
         0
  9
$USERI2
 70
         0
  9
$USERI3
 70
         0
  9
$USERI4
 70
         0
  9
$USERI5
 70
         0
  9
$USERR1
 40
0.0
  9
$USERR2
 40
0.0
  9
$USERR3
 40
0.0
  9
$USERR4
 40
0.0
  9
$USERR5
 40
0.0
  9
$WORLDVIEW
 70
         1
  9
$SHADEDGE
 70
         3
  9
$SHADEDIF
 70
        70
  9
$TILEMODE
 70
         1
  9
$MAXACTVP
 70
        16
  9
$PINSBASE
 10
0.0
 20
0.0
 30
0.0
  9
$PLIMCHECK
 70
         0
  9
$PEXTMIN
 10
1.0000000000E+20
 20
1.0000000000E+20
 30
1.0000000000E+20
  9
$PEXTMAX
 10
-1.0000000000E+20
 20
-1.0000000000E+20
 30
-1.0000000000E+20
  9
$PLIMMIN
 10
0.0
 20
0.0
  9
$PLIMMAX
 10
12.0
 20
9.0
  9
$UNITMODE
 70
         0
  9
$VISRETAIN
 70
         0
  9
$PLINEGEN
 70
         1
  9
$PSLTSCALE
 70
         1
  9
$TREEDEPTH
 70
      3020
  9
$DWGCODEPAGE
  3
ansi_1252
  0
ENDSEC
  0
SECTION
  2
TABLES
  0
TABLE
  2
VPORT
 70
         1
  0
VPORT
  2
*ACTIVE
 70
         0
 10
0.0
 20
0.0
 11
1.0
 21
1.0
 12
148.5
 22
105.0
 13
0.0
 23
0.0
 14
1.0
 24
1.0
 15
0.0
 25
0.0
 16
0.0
 26
0.0
 36
1.0
 17
0.0
 27
0.0
 37
0.0
 40
210.0
 41
0.7070707071
 42
50.0
 43
0.0
 44
0.0
 50
0.0
 51
0.0
 71
         0
 72
      2000
 73
         1
 74
         1
 75
         0
 76
         0
 77
         0
 78
         0
  0
ENDTAB
  0
TABLE
  2
LTYPE
 70
         7
  0
LTYPE
  2
CONTINUOUS
 70
        64
  3
Solid line
 72
        65
 73
         0
 40
0.0
  0
LTYPE
  2
CONTINUOUS
 70
        64
  3
Solid line
 72
        65
 73
         1
 40
60.96
 49
60.96
  0
LTYPE
  2
HIDDEN
 70
        64
  3
Hidden __ __ __ __ __ __ __ __ __ __ __ __ __ __
 72
        65
 73
         2
 40
1.905
 49
1.27
 49
-0.635
  0
LTYPE
  2
PHANTOM
 70
        64
  3
Phantom ______  __  __  ______  __  __  ______
 72
        65
 73
         6
 40
12.7
 49
6.35
 49
-1.27
 49
1.27
 49
-1.27
 49
1.27
 49
-1.27
  0
LTYPE
  2
CENTER
 70
        64
  3
Center ____ _ ____ _ ____ _ ____ _ ____ _ ____
 72
        65
 73
         4
 40
10.16
 49
6.35
 49
-1.27
 49
1.27
 49
-1.27
  0
LTYPE
  2
CENTERX2
 70
        64
  3
Center (2x) ________  __  ________  __  _____
 72
        65
 73
         4
 40
20.32
 49
12.7
 49
-2.54
 49
2.54
 49
-2.54
  0
LTYPE
  2
DOT2
 70
        64
  3
Dot (.5x) ........................................
 72
        65
 73
         2
 40
0.635
 49
0.0
 49
-0.635
  0
ENDTAB
  0
TABLE
  2
LAYER
 70
         2
  0
LAYER
  2
0
 70
         0
 62
         7
  6
CONTINUOUS
  0
LAYER
  2
DEFPOINTS
 70
         0
 62
         7
  6
CONTINUOUS
  0
ENDTAB
  0
TABLE
  2
STYLE
 70
         1
  0
STYLE
  2
STANDARD
 70
         0
 40
0.0
 41
1.0
 50
0.0
 71
         0
 42
0.0
  3
txt
  4

  0
ENDTAB
  0
TABLE
  2
VIEW
 70
         0
  0
ENDTAB
  0
TABLE
  2
UCS
 70
         0
  0
ENDTAB
  0
TABLE
  2
APPID
 70
         1
  0
APPID
  2
ACAD
 70
         0
  0
ENDTAB
  0
TABLE
  2
DIMSTYLE
 70
         1
  0
DIMSTYLE
  2
STANDARD
 70
         0
  3

  4

  5

  6

  7

 40
1.0
 41
0.18
 42
0.0625
 43
0.38
 44
0.18
 45
0.0
 46
0.0
 47
0.0
 48
0.0
 71
         0
 72
         0
 73
         1
 74
         1
 75
         0
 76
         0
 77
         0
 78
         0
140
0.18
141
0.09
142
0.0
143
25.4
144
1.0
145
0.0
146
1.0
147
0.09
170
         0
171
         2
172
         0
173
         0
174
         0
175
         0
176
         0
177
         0
178
         0
  0
ENDTAB
  0
ENDSEC
  0
SECTION
  2
BLOCKS
  0
ENDSEC
  0
SECTION
  2
ENTITIES
  0
LINE
  8
0
  6
CONTINUOUS
 62
         7
  5
27
 10
122.3136024845
 20
113.7168944099
 30
0.0
 11
125.3136024845
 21
113.7168944099
 31
0.0
  0
LINE
  8
0
  6
CONTINUOUS
 62
         7
  5
28
 10
125.3136024845
 20
113.7168944099
 30
0.0
 11
125.3136024845
 21
114.5822370475
 31
0.0
  0
ARC
  8
0
  6
CONTINUOUS
 62
         7
  5
29
 10
123.8136024845
 20
116.9168944099
 30
0.0
 40
2.775
 50
302.7204433664
 51
57.2795566336
  0
LINE
  8
0
  6
CONTINUOUS
 62
         7
  5
2A
 10
125.3136024845
 20
119.2515517724
 30
0.0
 11
125.3136024845
 21
120.1168944099
 31
0.0
  0
LINE
  8
0
  6
CONTINUOUS
 62
         7
  5
2B
 10
125.3136024845
 20
120.1168944099
 30
0.0
 11
122.3136024845
 21
120.1168944099
 31
0.0
  0
LINE
  8
0
  6
CONTINUOUS
 62
         7
  5
2C
 10
122.3136024845
 20
120.1168944099
 30
0.0
 11
122.3136024845
 21
119.2515517724
 31
0.0
  0
ARC
  8
0
  6
CONTINUOUS
 62
         7
  5
2D
 10
123.8136024845
 20
116.9168944099
 30
0.0
 40
2.775
 50
122.7204433664
 51
237.2795566336
  0
LINE
  8
0
  6
CONTINUOUS
 62
         7
  5
2E
 10
172.3136024845
 20
113.7168944099
 30
0.0
 11
175.3136024845
 21
113.7168944099
 31
0.0
  0
LINE
  8
0
  6
CONTINUOUS
 62
         7
  5
2F
 10
175.3136024845
 20
113.7168944099
 30
0.0
 11
175.3136024845
 21
114.5822370475
 31
0.0
  0
ARC
  8
0
  6
CONTINUOUS
 62
         7
  5
30
 10
173.8136024845
 20
116.9168944099
 30
0.0
 40
2.775
 50
302.7204433664
 51
57.2795566336
  0
LINE
  8
0
  6
CONTINUOUS
 62
         7
  5
31
 10
175.3136024845
 20
119.2515517724
 30
0.0
 11
175.3136024845
 21
120.1168944099
 31
0.0
  0
LINE
  8
0
  6
CONTINUOUS
 62
         7
  5
32
 10
175.3136024845
 20
120.1168944099
 30
0.0
 11
172.3136024845
 21
120.1168944099
 31
0.0
  0
LINE
  8
0
  6
CONTINUOUS
 62
         7
  5
33
 10
172.3136024845
 20
120.1168944099
 30
0.0
 11
172.3136024845
 21
119.2515517724
 31
0.0
  0
ARC
  8
0
  6
CONTINUOUS
 62
         7
  5
34
 10
173.8136024845
 20
116.9168944099
 30
0.0
 40
2.775
 50
122.7204433664
 51
237.2795566336
  0
LINE
  8
0
  6
CONTINUOUS
 62
         7
  5
35
 10
172.3136024845
 20
114.5822370475
 30
0.0
 11
172.3136024845
 21
113.7168944099
 31
0.0
  0
LINE
  8
0
  6
CONTINUOUS
 62
         7
  5
36
 10
174.1136024845
 20
108.9168944099
 30
0.0
 11
173.8136024845
 21
109.2168944099
 31
0.0
  0
LINE
  8
0
  6
CONTINUOUS
 62
         7
  5
37
 10
173.8136024845
 20
109.2168944099
 30
0.0
 11
173.5136024845
 21
108.9168944099
 31
0.0
  0
LINE
  8
0
  6
CONTINUOUS
 62
         7
  5
38
 10
124.1136024845
 20
108.9168944099
 30
0.0
 11
123.8136024845
 21
109.2168944099
 31
0.0
  0
LINE
  8
0
  6
CONTINUOUS
 62
         7
  5
39
 10
123.8136024845
 20
109.2168944099
 30
0.0
 11
123.5136024845
 21
108.9168944099
 31
0.0
  0
LINE
  8
0
  6
CONTINUOUS
 62
         7
  5
3A
 10
123.5136024845
 20
124.9168944099
 30
0.0
 11
123.8136024845
 21
124.6168944099
 31
0.0
  0
LINE
  8
0
  6
CONTINUOUS
 62
         7
  5
3B
 10
123.8136024845
 20
124.6168944099
 30
0.0
 11
124.1136024845
 21
124.9168944099
 31
0.0
  0
LINE
  8
0
  6
CONTINUOUS
 62
         7
  5
3C
 10
173.5136024845
 20
124.9168944099
 30
0.0
 11
173.8136024845
 21
124.6168944099
 31
0.0
  0
LINE
  8
0
  6
CONTINUOUS
 62
         7
  5
3D
 10
173.8136024845
 20
124.6168944099
 30
0.0
 11
174.1136024845
 21
124.9168944099
 31
0.0
  0
ARC
  8
0
  6
CONTINUOUS
 62
         7
  5
3E
 10
173.8136024845
 20
116.9168944099
 30
0.0
 40
5.25
 50
138.1896851042
 51
221.8103148958
  0
ARC
  8
0
  6
CONTINUOUS
 62
         7
  5
3F
 10
168.7824495351
 20
121.4168944099
 30
0.0
 40
1.5
 50
318.1896851042
 51
90.0
  0
ARC
  8
0
  6
CONTINUOUS
 62
         7
  5
40
 10
128.8447554338
 20
121.4168944099
 30
0.0
 40
1.5
 50
90.0
 51
221.8103148958
  0
ARC
  8
0
  6
CONTINUOUS
 62
         7
  5
41
 10
123.8136024845
 20
116.9168944099
 30
0.0
 40
5.25
 50
318.1896851042
 51
41.8103148958
  0
ARC
  8
0
  6
CONTINUOUS
 62
         7
  5
42
 10
128.8447554338
 20
112.4168944099
 30
0.0
 40
1.5
 50
138.1896851042
 51
270.0
  0
ARC
  8
0
  6
CONTINUOUS
 62
         7
  5
43
 10
168.7824495351
 20
112.4168944099
 30
0.0
 40
1.5
 50
270.0
 51
41.8103148958
  0
ARC
  8
0
  6
CONTINUOUS
 62
         7
  5
44
 10
181.3136024845
 20
112.4168944099
 30
0.0
 40
1.5
 50
270.0
 51
0.0
  0
LINE
  8
0
  6
CONTINUOUS
 62
         7
  5
45
 10
182.8136024845
 20
112.4168944099
 30
0.0
 11
182.8136024845
 21
121.4168944099
 31
0.0
  0
ARC
  8
0
  6
CONTINUOUS
 62
         7
  5
46
 10
181.3136024845
 20
121.4168944099
 30
0.0
 40
1.5
 50
0.0
 51
90.0
  0
LINE
  8
0
  6
CONTINUOUS
 62
         7
  5
47
 10
181.3136024845
 20
122.9168944099
 30
0.0
 11
178.8447554338
 21
122.9168944099
 31
0.0
  0
ARC
  8
0
  6
CONTINUOUS
 62
         7
  5
48
 10
178.8447554338
 20
121.4168944099
 30
0.0
 40
1.5
 50
90.0
 51
221.8103148958
  0
ARC
  8
0
  6
CONTINUOUS
 62
         7
  5
49
 10
173.8136024845
 20
116.9168944099
 30
0.0
 40
5.25
 50
318.1896851042
 51
41.8103148958
  0
ARC
  8
0
  6
CONTINUOUS
 62
         7
  5
4A
 10
178.8447554338
 20
112.4168944099
 30
0.0
 40
1.5
 50
138.1896851042
 51
270.0
  0
ARC
  8
0
  6
CONTINUOUS
 62
         7
  5
4B
 10
116.3136024845
 20
121.4168944099
 30
0.0
 40
1.5
 50
90.0
 51
180.0
  0
LINE
  8
0
  6
CONTINUOUS
 62
         7
  5
4C
 10
114.8136024845
 20
121.4168944099
 30
0.0
 11
114.8136024845
 21
112.4168944099
 31
0.0
  0
ARC
  8
0
  6
CONTINUOUS
 62
         7
  5
4D
 10
116.3136024845
 20
112.4168944099
 30
0.0
 40
1.5
 50
180.0
 51
270.0
  0
LINE
  8
0
  6
CONTINUOUS
 62
         7
  5
4E
 10
116.3136024845
 20
110.9168944099
 30
0.0
 11
118.7824495351
 21
110.9168944099
 31
0.0
  0
ARC
  8
0
  6
CONTINUOUS
 62
         7
  5
4F
 10
118.7824495351
 20
112.4168944099
 30
0.0
 40
1.5
 50
270.0
 51
41.8103148958
  0
ARC
  8
0
  6
CONTINUOUS
 62
         7
  5
50
 10
123.8136024845
 20
116.9168944099
 30
0.0
 40
5.25
 50
138.1896851042
 51
221.8103148958
  0
ARC
  8
0
  6
CONTINUOUS
 62
         7
  5
51
 10
118.7824495351
 20
121.4168944099
 30
0.0
 40
1.5
 50
318.1896851042
 51
90.0
  0
LINE
  8
0
  6
CONTINUOUS
 62
         7
  5
52
 10
122.3136024845
 20
114.5822370475
 30
0.0
 11
122.3136024845
 21
113.7168944099
 31
0.0
  0
LINE
  8
0
  6
CONTINUOUS
 62
         7
  5
53
 10
123.5136024845
 20
124.9168944099
 30
0.0
 11
98.8136024845
 21
124.9168944099
 31
0.0
  0
LINE
  8
0
  6
CONTINUOUS
 62
         7
  5
54
 10
98.8136024845
 20
124.9168944099
 30
0.0
 11
98.8136024845
 21
120.1668944099
 31
0.0
  0
LINE
  8
0
  6
CONTINUOUS
 62
         7
  5
55
 10
98.8136024845
 20
120.1668944099
 30
0.0
 11
102.8136024845
 21
120.1668944099
 31
0.0
  0
LINE
  8
0
  6
CONTINUOUS
 62
         7
  5
56
 10
102.8136024845
 20
120.1668944099
 30
0.0
 11
102.8136024845
 21
122.1668944099
 31
0.0
  0
LINE
  8
0
  6
CONTINUOUS
 62
         7
  5
57
 10
102.8136024845
 20
122.1668944099
 30
0.0
 11
111.8136024845
 21
122.1668944099
 31
0.0
  0
LINE
  8
0
  6
CONTINUOUS
 62
         7
  5
58
 10
111.8136024845
 20
122.1668944099
 30
0.0
 11
111.8136024845
 21
111.6668944099
 31
0.0
  0
LINE
  8
0
  6
CONTINUOUS
 62
         7
  5
59
 10
111.8136024845
 20
111.6668944099
 30
0.0
 11
102.8136024845
 21
111.6668944099
 31
0.0
  0
LINE
  8
0
  6
CONTINUOUS
 62
         7
  5
5A
 10
102.8136024845
 20
111.6668944099
 30
0.0
 11
102.8136024845
 21
113.6668944099
 31
0.0
  0
LINE
  8
0
  6
CONTINUOUS
 62
         7
  5
5B
 10
102.8136024845
 20
113.6668944099
 30
0.0
 11
98.8136024845
 21
113.6668944099
 31
0.0
  0
LINE
  8
0
  6
CONTINUOUS
 62
         7
  5
5C
 10
98.8136024845
 20
113.6668944099
 30
0.0
 11
98.8136024845
 21
108.9168944099
 31
0.0
  0
LINE
  8
0
  6
CONTINUOUS
 62
         7
  5
5D
 10
174.1136024845
 20
108.9168944099
 30
0.0
 11
198.8136024845
 21
108.9168944099
 31
0.0
  0
LINE
  8
0
  6
CONTINUOUS
 62
         7
  5
5E
 10
198.8136024845
 20
108.9168944099
 30
0.0
 11
198.8136024845
 21
113.6668944099
 31
0.0
  0
LINE
  8
0
  6
CONTINUOUS
 62
         7
  5
5F
 10
198.8136024845
 20
113.6668944099
 30
0.0
 11
194.8136024845
 21
113.6668944099
 31
0.0
  0
LINE
  8
0
  6
CONTINUOUS
 62
         7
  5
60
 10
194.8136024845
 20
113.6668944099
 30
0.0
 11
194.8136024845
 21
111.6668944099
 31
0.0
  0
LINE
  8
0
  6
CONTINUOUS
 62
         7
  5
61
 10
194.8136024845
 20
111.6668944099
 30
0.0
 11
185.8136024845
 21
111.6668944099
 31
0.0
  0
LINE
  8
0
  6
CONTINUOUS
 62
         7
  5
62
 10
185.8136024845
 20
111.6668944099
 30
0.0
 11
185.8136024845
 21
122.1668944099
 31
0.0
  0
LINE
  8
0
  6
CONTINUOUS
 62
         7
  5
63
 10
185.8136024845
 20
122.1668944099
 30
0.0
 11
194.8136024845
 21
122.1668944099
 31
0.0
  0
LINE
  8
0
  6
CONTINUOUS
 62
         7
  5
64
 10
194.8136024845
 20
122.1668944099
 30
0.0
 11
194.8136024845
 21
120.1668944099
 31
0.0
  0
LINE
  8
0
  6
CONTINUOUS
 62
         7
  5
65
 10
194.8136024845
 20
120.1668944099
 30
0.0
 11
198.8136024845
 21
120.1668944099
 31
0.0
  0
LINE
  8
0
  6
CONTINUOUS
 62
         7
  5
66
 10
198.8136024845
 20
120.1668944099
 30
0.0
 11
198.8136024845
 21
124.9168944099
 31
0.0
  0
LINE
  8
0
  6
CONTINUOUS
 62
         7
  5
67
 10
168.7824495351
 20
122.9168944099
 30
0.0
 11
128.8447554338
 21
122.9168944099
 31
0.0
  0
LINE
  8
0
  6
CONTINUOUS
 62
         7
  5
68
 10
178.8447554338
 20
110.9168944099
 30
0.0
 11
181.3136024845
 21
110.9168944099
 31
0.0
  0
LINE
  8
0
  6
CONTINUOUS
 62
         7
  5
69
 10
128.8447554338
 20
110.9168944099
 30
0.0
 11
168.7824495351
 21
110.9168944099
 31
0.0
  0
LINE
  8
0
  6
CONTINUOUS
 62
         7
  5
6A
 10
118.7824495351
 20
122.9168944099
 30
0.0
 11
116.3136024845
 21
122.9168944099
 31
0.0
  0
LINE
  8
0
  6
CONTINUOUS
 62
         7
  5
6B
 10
98.8136024845
 20
108.9168944099
 30
0.0
 11
123.5136024845
 21
108.9168944099
 31
0.0
  0
LINE
  8
0
  6
CONTINUOUS
 62
         7
  5
6C
 10
173.5136024845
 20
124.9168944099
 30
0.0
 11
124.1136024845
 21
124.9168944099
 31
0.0
  0
LINE
  8
0
  6
CONTINUOUS
 62
         7
  5
6D
 10
124.1136024845
 20
108.9168944099
 30
0.0
 11
173.5136024845
 21
108.9168944099
 31
0.0
  0
LINE
  8
0
  6
CONTINUOUS
 62
         7
  5
6E
 10
198.8136024845
 20
124.9168944099
 30
0.0
 11
174.1136024845
 21
124.9168944099
 31
0.0
  0
ENDSEC
  0
EOF
