  0
SECTION
  2
HEADER
  9
$ACADVER
  1
AC1009
  9
$DWGCODEPAGE
  3
ansi_1252
  9
$INSBASE
 10
0.0
 20
0.0
 30
0.0
  9
$EXTMIN
 10
0.0
 20
0.0
 30
0.0
  9
$EXTMAX
 10
297.0
 20
210.0
 30
0.0
  9
$LIMMIN
 10
0.0
 20
0.0
  9
$LIMMAX
 10
0.0
 20
0.0
  9
$ORTHOMODE
 70
     0
  9
$REGENMODE
 70
     1
  9
$FILLMODE
 70
     1
  9
$QTEXTMODE
 70
     0
  9
$MIRRTEXT
 70
     1
  9
$DRAGMODE
 70
     2
  9
$LTSCALE
 40
1.0
  9
$OSMODE
 70
    37
  9
$ATTMODE
 70
     1
  9
$TEXTSIZE
 40
2.6458333333
  9
$TRACEWID
 40
1.0
  9
$TEXTSTYLE
  7
STANDARD
  9
$CLAYER
  8
0
  9
$CELTYPE
  6
BYLAYER
  9
$CECOLOR
 62
   256
  9
$DIMSCALE
 40
1.0
  9
$DIMASZ
 40
2.5
  9
$DIMEXO
 40
0.1
  9
$DIMDLI
 40
3.75
  9
$DIMRND
 40
0.0
  9
$DIMDLE
 40
0.0
  9
$DIMEXE
 40
1.0
  9
$DIMTP
 40
0.0
  9
$DIMTM
 40
0.0
  9
$DIMTXT
 40
2.6458333333
  9
$DIMCEN
 40
2.5
  9
$DIMTSZ
 40
0.0
  9
$DIMTOL
 70
     0
  9
$DIMLIM
 70
     0
  9
$DIMTIH
 70
     1
  9
$DIMTOH
 70
     1
  9
$DIMSE1
 70
     0
  9
$DIMSE2
 70
     0
  9
$DIMTAD
 70
     1
  9
$DIMZIN
 70
     0
  9
$DIMBLK
  1

  9
$DIMASO
 70
     1
  9
$DIMSHO
 70
     1
  9
$DIMPOST
  1

  9
$DIMAPOST
  1

  9
$DIMALT
 70
     0
  9
$DIMALTD
 70
     3
  9
$DIMALTF
 40
0.0393700787
  9
$DIMLFAC
 40
1.0
  9
$DIMTOFL
 70
     1
  9
$DIMTVP
 40
0.0
  9
$DIMTIX
 70
     0
  9
$DIMSOXD
 70
     0
  9
$DIMSAH
 70
     0
  9
$DIMBLK1
  1

  9
$DIMBLK2
  1

  9
$DIMSTYLE
  2
ISO-25
  9
$DIMCLRD
 70
     0
  9
$DIMCLRE
 70
     0
  9
$DIMCLRT
 70
     0
  9
$DIMTFAC
 40
1.0
  9
$DIMGAP
 40
1.524
  9
$LUNITS
 70
     2
  9
$LUPREC
 70
     1
  9
$SKETCHINC
 40
1.0
  9
$FILLETRAD
 40
10.0
  9
$AUNITS
 70
     0
  9
$AUPREC
 70
     0
  9
$MENU
  1
.
  9
$ELEVATION
 40
0.0
  9
$PELEVATION
 40
0.0
  9
$THICKNESS
 40
0.0
  9
$LIMCHECK
 70
     0
  9
$CHAMFERA
 40
10.0
  9
$CHAMFERB
 40
10.0
  9
$SKPOLY
 70
     0
  9
$TDCREATE
 40
2454627.548663356
  9
$TDUPDATE
 40
2454627.548663368
  9
$TDINDWG
 40
0.0000000116
  9
$TDUSRTIMER
 40
0.0000000116
  9
$USRTIMER
 70
     1
  9
$ANGBASE
 50
0.0
  9
$ANGDIR
 70
     0
  9
$PDMODE
 70
     0
  9
$PDSIZE
 40
-1.0
  9
$PLINEWID
 40
0.0
  9
$COORDS
 70
     1
  9
$SPLFRAME
 70
     0
  9
$SPLINETYPE
 70
     6
  9
$SPLINESEGS
 70
     8
  9
$ATTDIA
 70
     0
  9
$ATTREQ
 70
     1
  9
$HANDLING
 70
     1
  9
$HANDSEED
  5
1B7
  9
$SURFTAB1
 70
     6
  9
$SURFTAB2
 70
     6
  9
$SURFTYPE
 70
     6
  9
$SURFU
 70
     6
  9
$SURFV
 70
     6
  9
$UCSNAME
  2

  9
$UCSORG
 10
0.0
 20
0.0
 30
0.0
  9
$UCSXDIR
 10
1.0
 20
0.0
 30
0.0
  9
$UCSYDIR
 10
0.0
 20
1.0
 30
0.0
  9
$PUCSNAME
  2

  9
$PUCSORG
 10
0.0
 20
0.0
 30
0.0
  9
$PUCSXDIR
 10
1.0
 20
0.0
 30
0.0
  9
$PUCSYDIR
 10
0.0
 20
1.0
 30
0.0
  9
$USERI1
 70
     0
  9
$USERI2
 70
     0
  9
$USERI3
 70
     0
  9
$USERI4
 70
     0
  9
$USERI5
 70
     0
  9
$USERR1
 40
0.0
  9
$USERR2
 40
0.0
  9
$USERR3
 40
0.0
  9
$USERR4
 40
0.0
  9
$USERR5
 40
0.0
  9
$WORLDVIEW
 70
     1
  9
$SHADEDGE
 70
     3
  9
$SHADEDIF
 70
    70
  9
$TILEMODE
 70
     1
  9
$MAXACTVP
 70
    64
  9
$PLIMCHECK
 70
     0
  9
$PEXTMIN
 10
1.0000000000E+20
 20
1.0000000000E+20
 30
1.0000000000E+20
  9
$PEXTMAX
 10
-1.0000000000E+20
 20
-1.0000000000E+20
 30
-1.0000000000E+20
  9
$PLIMMIN
 10
0.0
 20
0.0
  9
$PLIMMAX
 10
420.0
 20
297.0
  9
$UNITMODE
 70
     0
  9
$VISRETAIN
 70
     1
  9
$PLINEGEN
 70
     0
  9
$PSLTSCALE
 70
     1
  0
ENDSEC
  0
SECTION
  2
TABLES
  0
TABLE
  2
VPORT
 70
     1
  0
VPORT
  2
*ACTIVE
 70
     0
 10
0.0
 20
0.0
 11
1.0
 21
1.0
 12
148.5
 22
105.0
 13
0.0
 23
0.0
 14
10.0
 24
10.0
 15
10.0
 25
10.0
 16
0.0
 26
0.0
 36
1.0
 17
0.0
 27
0.0
 37
0.0
 40
210.0
 41
1.4142857143
 42
50.0
 43
0.0
 44
0.0
 50
0.0
 51
0.0
 71
     0
 72
  2000
 73
     1
 74
     3
 75
     0
 76
     0
 77
     0
 78
     0
  0
ENDTAB
  0
TABLE
  2
LTYPE
 70
     6
  0
LTYPE
  2
CONTINUOUS
 70
     0
  3
Solid line
 72
    65
 73
     0
 40
0.0
  0
LTYPE
  2
HIDDEN
 70
     0
  3
Hidden __ __ __ __ __ __ __ __ __ __ __ __ __ __
 72
    65
 73
     2
 40
1.905
 49
1.27
 49
-0.635
  0
LTYPE
  2
PHANTOM
 70
     0
  3
Phantom ______  __  __  ______  __  __  ______
 72
    65
 73
     6
 40
12.7
 49
6.35
 49
-1.27
 49
1.27
 49
-1.27
 49
1.27
 49
-1.27
  0
LTYPE
  2
CENTER
 70
     0
  3
Center ____ _ ____ _ ____ _ ____ _ ____ _ ____
 72
    65
 73
     4
 40
10.16
 49
6.35
 49
-1.27
 49
1.27
 49
-1.27
  0
LTYPE
  2
CENTERX2
 70
     0
  3
Center (2x) ________  __  ________  __  _____
 72
    65
 73
     4
 40
20.32
 49
12.7
 49
-2.54
 49
2.54
 49
-2.54
  0
LTYPE
  2
DOT2
 70
     0
  3
Dot (.5x) ........................................
 72
    65
 73
     2
 40
0.635
 49
0.0
 49
-0.635
  0
ENDTAB
  0
TABLE
  2
LAYER
 70
     1
  0
LAYER
  2
0
 70
     0
 62
     7
  6
CONTINUOUS
  0
ENDTAB
  0
TABLE
  2
STYLE
 70
     1
  0
STYLE
  2
STANDARD
 70
     0
 40
0.0
 41
1.0
 50
0.0
 71
     0
 42
2.5
  3
txt
  4

  0
ENDTAB
  0
TABLE
  2
VIEW
 70
     0
  0
ENDTAB
  0
TABLE
  2
UCS
 70
     0
  0
ENDTAB
  0
TABLE
  2
APPID
 70
     1
  0
APPID
  2
ACAD
 70
     0
  0
ENDTAB
  0
TABLE
  2
DIMSTYLE
 70
     1
  0
DIMSTYLE
  2
ISO-25
 70
     0
  3

  4

  5

  6

  7

 40
1.0
 41
2.5
 42
0.625
 43
3.75
 44
1.25
 45
0.0
 46
0.0
 47
0.0
 48
0.0
140
2.5
141
2.5
142
0.0
143
0.0393700787
144
1.0
145
0.0
146
1.0
147
0.625
 71
     0
 72
     0
 73
     0
 74
     0
 75
     0
 76
     0
 77
     1
 78
     8
170
     0
171
     3
172
     1
173
     0
174
     0
175
     0
176
     0
177
     0
178
     0
  0
ENDTAB
  0
ENDSEC
  0
SECTION
  2
BLOCKS
  0
BLOCK
  8
0
  2
$MODEL_SPACE
 70
     0
 10
0.0
 20
0.0
 30
0.0
  3
$MODEL_SPACE
  1

  0
ENDBLK
  5
21
  8
0
  0
BLOCK
 67
     1
  8
0
  2
$PAPER_SPACE
 70
     0
 10
0.0
 20
0.0
 30
0.0
  3
$PAPER_SPACE
  1

  0
ENDBLK
  5
1D
 67
     1
  8
0
  0
ENDSEC
  0
SECTION
  2
ENTITIES
  0
ARC
  5
2F
  8
0
  6
CONTINUOUS
 62
     7
 10
25.0976898223
 20
100.0562520194
 30
0.0
 40
1.0
 50
180.0
 51
270.0
  0
LINE
  5
30
  8
0
  6
CONTINUOUS
 62
     7
 10
25.0976870924
 20
99.0562519195
 30
0.0
 11
36.0476861864
 21
99.0562519195
 31
0.0
  0
ARC
  5
31
  8
0
  6
CONTINUOUS
 62
     7
 10
36.0476898223
 20
100.0562520194
 30
0.0
 40
1.0
 50
270.0
 51
0.0
  0
LINE
  5
32
  8
0
  6
CONTINUOUS
 62
     7
 10
37.047688213
 20
100.0562520835
 30
0.0
 11
37.047688213
 21
106.1062520507
 31
0.0
  0
ARC
  5
33
  8
0
  6
CONTINUOUS
 62
     7
 10
36.0476898223
 20
106.1062520194
 30
0.0
 40
1.0
 50
0.0
 51
90.0
  0
LINE
  5
34
  8
0
  6
CONTINUOUS
 62
     7
 10
36.0476861864
 20
107.1062522146
 30
0.0
 11
25.0976870924
 21
107.1062522146
 31
0.0
  0
ARC
  5
35
  8
0
  6
CONTINUOUS
 62
     7
 10
25.0976898223
 20
106.1062520194
 30
0.0
 40
1.0
 50
90.0
 51
180.0
  0
LINE
  5
36
  8
0
  6
CONTINUOUS
 62
     7
 10
24.0976925164
 20
106.1062520507
 30
0.0
 11
24.0976925164
 21
100.0562520835
 31
0.0
  0
ARC
  5
37
  8
0
  6
CONTINUOUS
 62
     7
 10
106.5476898223
 20
100.0562520194
 30
0.0
 40
1.0
 50
180.0
 51
270.0
  0
LINE
  5
38
  8
0
  6
CONTINUOUS
 62
     7
 10
106.547691223
 20
99.0562519195
 30
0.0
 11
136.0476895392
 21
99.0562519195
 31
0.0
  0
ARC
  5
39
  8
0
  6
CONTINUOUS
 62
     7
 10
136.0476898223
 20
100.0562520194
 30
0.0
 40
1.0
 50
270.0
 51
0.0
  0
LINE
  5
3A
  8
0
  6
CONTINUOUS
 62
     7
 10
137.0476897031
 20
100.0562520835
 30
0.0
 11
137.0476897031
 21
108.3591381225
 31
0.0
  0
ARC
  5
3B
  8
0
  6
CONTINUOUS
 62
     7
 10
136.0476898223
 20
108.3591377024
 30
0.0
 40
1.000000000000008
 50
0.0
 51
30.0
  0
LINE
  5
3C
  8
0
  6
CONTINUOUS
 62
     7
 10
136.9137152254
 20
108.8591372731
 30
0.0
 11
129.467562136
 21
121.7562515425
 31
0.0
  0
ARC
  5
3D
  8
0
  6
CONTINUOUS
 62
     7
 10
128.6015373996
 20
121.2562520194
 30
0.0
 40
1.000000000000001
 50
30.0
 51
90.0
  0
ARC
  5
3E
  8
0
  6
CONTINUOUS
 62
     7
 10
113.993842245
 20
121.2562520194
 30
0.0
 40
1.000000000000001
 50
90.0
 51
150.0
  0
LINE
  5
3F
  8
0
  6
CONTINUOUS
 62
     7
 10
113.1278167635
 20
121.7562515425
 30
0.0
 11
105.6816655367
 21
108.8591372731
 31
0.0
  0
ARC
  5
40
  8
0
  6
CONTINUOUS
 62
     7
 10
106.5476898223
 20
108.3591377024
 30
0.0
 40
1.000000000000008
 50
150.0
 51
180.0
  0
LINE
  5
41
  8
0
  6
CONTINUOUS
 62
     7
 10
105.5476891964
 20
108.3591381225
 30
0.0
 11
105.5476891964
 21
100.0562520835
 31
0.0
  0
ARC
  5
42
  8
0
  6
CONTINUOUS
 62
     7
 10
56.5476898223
 20
100.0562520194
 30
0.0
 40
1.0
 50
180.0
 51
270.0
  0
LINE
  5
43
  8
0
  6
CONTINUOUS
 62
     7
 10
56.5476904779
 20
99.0562519195
 30
0.0
 11
86.0476906568
 21
99.0562519195
 31
0.0
  0
ARC
  5
44
  8
0
  6
CONTINUOUS
 62
     7
 10
86.0476898223
 20
100.0562520194
 30
0.0
 40
1.0
 50
270.0
 51
0.0
  0
LINE
  5
45
  8
0
  6
CONTINUOUS
 62
     7
 10
87.047688958
 20
100.0562520835
 30
0.0
 11
87.047688958
 21
108.3591381225
 31
0.0
  0
ARC
  5
46
  8
0
  6
CONTINUOUS
 62
     7
 10
86.0476898223
 20
108.3591377024
 30
0.0
 40
1.000000000000001
 50
0.0
 51
30.0
  0
LINE
  5
47
  8
0
  6
CONTINUOUS
 62
     7
 10
86.913716343
 20
108.8591372731
 30
0.0
 11
79.467561391
 21
121.7562515425
 31
0.0
  0
ARC
  5
48
  8
0
  6
CONTINUOUS
 62
     7
 10
78.6015373996
 20
121.2562520194
 30
0.0
 40
1.000000000000008
 50
30.0
 51
90.0
  0
LINE
  5
49
  8
0
  6
CONTINUOUS
 62
     7
 10
78.6015357047
 20
122.2562525558
 30
0.0
 11
63.99384543
 21
122.2562525558
 31
0.0
  0
ARC
  5
4A
  8
0
  6
CONTINUOUS
 62
     7
 10
63.993842245
 20
121.2562520194
 30
0.0
 40
1.0
 50
90.0
 51
150.0
  0
LINE
  5
4B
  8
0
  6
CONTINUOUS
 62
     7
 10
63.1278197437
 20
121.7562515425
 30
0.0
 11
55.6816647917
 21
108.8591372731
 31
0.0
  0
ARC
  5
4C
  8
0
  6
CONTINUOUS
 62
     7
 10
56.5476898223
 20
108.3591377024
 30
0.0
 40
1.000000000000014
 50
150.0
 51
180.0
  0
LINE
  5
4D
  8
0
  6
CONTINUOUS
 62
     7
 10
55.5476884514
 20
108.3591381225
 30
0.0
 11
55.5476884514
 21
100.0562520835
 31
0.0
  0
ARC
  5
4E
  8
0
  6
CONTINUOUS
 62
     7
 10
46.2976898223
 20
116.2562520194
 30
0.0
 40
5.500000000000004
 50
125.7391704773
 51
222.8216822436
  0
ARC
  5
4F
  8
0
  6
CONTINUOUS
 62
     7
 10
43.3772085276
 20
120.3146740043
 30
0.0
 40
0.4999999999999979
 50
30.0
 51
125.7391704773
  0
LINE
  5
50
  8
0
  6
CONTINUOUS
 62
     7
 10
43.8102225929
 20
120.5646745997
 30
0.0
 11
44.813555029
 21
118.8268490273
 31
0.0
  0
ARC
  5
51
  8
0
  6
CONTINUOUS
 62
     7
 10
44.6403498925
 20
118.7268489831
 30
0.0
 40
0.2000000000000109
 50
303.8547243789
 51
30.0
  0
ARC
  5
52
  8
0
  6
CONTINUOUS
 62
     7
 10
46.2976898223
 20
116.2562520194
 30
0.0
 40
2.774999999999998
 50
123.8547243789
 51
235.150095421
  0
ARC
  5
53
  8
0
  6
CONTINUOUS
 62
     7
 10
44.5976898223
 20
113.8148128946
 30
0.0
 40
0.2000000000000125
 50
0.0
 51
55.150095421
  0
LINE
  5
54
  8
0
  6
CONTINUOUS
 62
     7
 10
44.7976927429
 20
113.8148136574
 30
0.0
 11
44.7976927429
 21
113.2562529433
 31
0.0
  0
ARC
  5
55
  8
0
  6
CONTINUOUS
 62
     7
 10
44.9976898223
 20
113.2562520194
 30
0.0
 40
0.2000000000000099
 50
180.0
 51
270.0
  0
LINE
  5
56
  8
0
  6
CONTINUOUS
 62
     7
 10
44.9976886779
 20
113.0562514204
 30
0.0
 11
47.5976879865
 21
113.0562514204
 31
0.0
  0
ARC
  5
57
  8
0
  6
CONTINUOUS
 62
     7
 10
47.5976898223
 20
113.2562520194
 30
0.0
 40
0.2000000000000099
 50
270.0
 51
0.0
  0
LINE
  5
58
  8
0
  6
CONTINUOUS
 62
     7
 10
47.797691372
 20
113.2562529433
 30
0.0
 11
47.797691372
 21
113.8148136574
 31
0.0
  0
ARC
  5
59
  8
0
  6
CONTINUOUS
 62
     7
 10
47.9976898223
 20
113.8148128946
 30
0.0
 40
0.2000000000000125
 50
124.849904579
 51
180.0
  0
ARC
  5
5A
  8
0
  6
CONTINUOUS
 62
     7
 10
46.2976898223
 20
116.2562520194
 30
0.0
 40
2.774999999999997
 50
304.849904579
 51
56.1452756211
  0
ARC
  5
5B
  8
0
  6
CONTINUOUS
 62
     7
 10
47.955029752
 20
118.7268489831
 30
0.0
 40
0.1999999999999963
 50
150.0
 51
236.1452756211
  0
LINE
  5
5C
  8
0
  6
CONTINUOUS
 62
     7
 10
47.7818216353
 20
118.8268490273
 30
0.0
 11
48.785161522
 21
120.5646745997
 31
0.0
  0
ARC
  5
5D
  8
0
  6
CONTINUOUS
 62
     7
 10
49.218171117
 20
120.3146740043
 30
0.0
 40
0.5000000000000164
 50
54.2608295227
 51
150.0
  0
ARC
  5
5E
  8
0
  6
CONTINUOUS
 62
     7
 10
46.2976898223
 20
116.2562520194
 30
0.0
 40
5.500000000000004
 50
317.1783177564
 51
54.2608295227
  0
ARC
  5
5F
  8
0
  6
CONTINUOUS
 62
     7
 10
50.6985259824
 20
112.1779385086
 30
0.0
 40
0.5000000000000084
 50
137.1783177564
 51
222.8216822436
  0
LINE
  5
60
  8
0
  6
CONTINUOUS
 62
     7
 10
51.5008832484
 20
110.5765333536
 30
0.0
 11
50.3317902952
 21
111.8380786988
 31
0.0
  0
ARC
  5
61
  8
0
  6
CONTINUOUS
 62
     7
 10
52.2343537696
 20
111.2562520194
 30
0.0
 40
1.000000000000002
 50
222.8216822436
 51
270.0
  0
LINE
  5
62
  8
0
  6
CONTINUOUS
 62
     7
 10
52.2343556553
 20
110.2562524515
 30
0.0
 11
53.6015371948
 21
110.2562524515
 31
0.0
  0
ARC
  5
63
  8
0
  6
CONTINUOUS
 62
     7
 10
53.6015373996
 20
111.2562520194
 30
0.0
 40
1.000000000000008
 50
270.0
 51
330.0
  0
LINE
  5
64
  8
0
  6
CONTINUOUS
 62
     7
 10
54.4675628811
 20
110.7562516022
 30
0.0
 11
61.9137178331
 21
123.6533668029
 31
0.0
  0
ARC
  5
65
  8
0
  6
CONTINUOUS
 62
     7
 10
61.0476898223
 20
124.1533663364
 30
0.0
 40
1.000000000000014
 50
330.0
 51
0.0
  0
LINE
  5
66
  8
0
  6
CONTINUOUS
 62
     7
 10
62.0476867229
 20
124.1533659535
 30
0.0
 11
62.0476867229
 21
132.4562538552
 31
0.0
  0
ARC
  5
67
  8
0
  6
CONTINUOUS
 62
     7
 10
61.0476898223
 20
132.4562520194
 30
0.0
 40
1.0
 50
0.0
 51
90.0
  0
LINE
  5
68
  8
0
  6
CONTINUOUS
 62
     7
 10
61.0476921469
 20
133.4562521565
 30
0.0
 11
25.0976870924
 21
133.4562521565
 31
0.0
  0
ARC
  5
69
  8
0
  6
CONTINUOUS
 62
     7
 10
25.0976898223
 20
132.4562520194
 30
0.0
 40
1.0
 50
90.0
 51
180.0
  0
LINE
  5
6A
  8
0
  6
CONTINUOUS
 62
     7
 10
24.0976925164
 20
132.4562538552
 30
0.0
 11
24.0976925164
 21
126.4062520253
 31
0.0
  0
ARC
  5
6B
  8
0
  6
CONTINUOUS
 62
     7
 10
25.0976898223
 20
126.4062520194
 30
0.0
 40
1.0
 50
180.0
 51
270.0
  0
LINE
  5
6C
  8
0
  6
CONTINUOUS
 62
     7
 10
25.0976870924
 20
125.4062518614
 30
0.0
 11
35.197686699
 21
125.4062518614
 31
0.0
  0
LINE
  5
6D
  8
0
  6
CONTINUOUS
 62
     7
 10
35.197686699
 20
125.4062518614
 30
0.0
 11
35.197686699
 21
111.2562516841
 31
0.0
  0
ARC
  5
6E
  8
0
  6
CONTINUOUS
 62
     7
 10
36.1976898223
 20
111.2562520194
 30
0.0
 40
1.0
 50
180.0
 51
270.0
  0
LINE
  5
6F
  8
0
  6
CONTINUOUS
 62
     7
 10
36.1976887256
 20
110.2562524515
 30
0.0
 11
40.3610284596
 21
110.2562524515
 31
0.0
  0
ARC
  5
70
  8
0
  6
CONTINUOUS
 62
     7
 10
40.361025875
 20
111.2562520194
 30
0.0
 40
1.000000000000007
 50
270.0
 51
317.1783177564
  0
LINE
  5
71
  8
0
  6
CONTINUOUS
 62
     7
 10
42.2635863691
 20
111.8380786988
 30
0.0
 11
41.0945008665
 21
110.5765333536
 31
0.0
  0
ARC
  5
72
  8
0
  6
CONTINUOUS
 62
     7
 10
41.8968536622
 20
112.1779385086
 30
0.0
 40
0.5000000000000084
 50
317.1783177564
 51
42.8216822436
  0
ARC
  5
73
  8
0
  6
CONTINUOUS
 62
     7
 10
96.2976898223
 20
116.2562520194
 30
0.0
 40
5.500000000000004
 50
125.7391704773
 51
222.8216822436
  0
ARC
  5
74
  8
0
  6
CONTINUOUS
 62
     7
 10
93.3772085276
 20
120.3146740043
 30
0.0
 40
0.5000000000000164
 50
30.0
 51
125.7391704773
  0
LINE
  5
75
  8
0
  6
CONTINUOUS
 62
     7
 10
93.8102196127
 20
120.5646745997
 30
0.0
 11
94.8135557741
 21
118.8268490273
 31
0.0
  0
ARC
  5
76
  8
0
  6
CONTINUOUS
 62
     7
 10
94.6403498925
 20
118.7268489831
 30
0.0
 40
0.1999999999999992
 50
303.8547243789
 51
30.0
  0
ARC
  5
77
  8
0
  6
CONTINUOUS
 62
     7
 10
96.2976898223
 20
116.2562520194
 30
0.0
 40
2.774999999999998
 50
123.8547243789
 51
235.150095421
  0
ARC
  5
78
  8
0
  6
CONTINUOUS
 62
     7
 10
94.5976898223
 20
113.8148128946
 30
0.0
 40
0.2000000000000084
 50
0.0
 51
55.150095421
  0
LINE
  5
79
  8
0
  6
CONTINUOUS
 62
     7
 10
94.7976897627
 20
113.8148136574
 30
0.0
 11
94.7976897627
 21
113.2562529433
 31
0.0
  0
ARC
  5
7A
  8
0
  6
CONTINUOUS
 62
     7
 10
94.9976898223
 20
113.2562520194
 30
0.0
 40
0.2000000000000028
 50
180.0
 51
270.0
  0
LINE
  5
7B
  8
0
  6
CONTINUOUS
 62
     7
 10
94.9976894229
 20
113.0562514204
 30
0.0
 11
97.5976887315
 21
113.0562514204
 31
0.0
  0
ARC
  5
7C
  8
0
  6
CONTINUOUS
 62
     7
 10
97.5976898223
 20
113.2562520194
 30
0.0
 40
0.2000000000000028
 50
270.0
 51
0.0
  0
LINE
  5
7D
  8
0
  6
CONTINUOUS
 62
     7
 10
97.7976883918
 20
113.2562529433
 30
0.0
 11
97.7976883918
 21
113.8148136574
 31
0.0
  0
ARC
  5
7E
  8
0
  6
CONTINUOUS
 62
     7
 10
97.9976898223
 20
113.8148128946
 30
0.0
 40
0.2000000000000084
 50
124.849904579
 51
180.0
  0
ARC
  5
7F
  8
0
  6
CONTINUOUS
 62
     7
 10
96.2976898223
 20
116.2562520194
 30
0.0
 40
2.774999999999998
 50
304.849904579
 51
56.1452756211
  0
ARC
  5
80
  8
0
  6
CONTINUOUS
 62
     7
 10
97.955029752
 20
118.7268489831
 30
0.0
 40
0.2000000000000109
 50
150.0
 51
236.1452756211
  0
LINE
  5
81
  8
0
  6
CONTINUOUS
 62
     7
 10
97.7818261057
 20
118.8268490273
 30
0.0
 11
98.7851585418
 21
120.5646745997
 31
0.0
  0
ARC
  5
82
  8
0
  6
CONTINUOUS
 62
     7
 10
99.218171117
 20
120.3146740043
 30
0.0
 40
0.5000000000000041
 50
54.2608295227
 51
150.0
  0
ARC
  5
83
  8
0
  6
CONTINUOUS
 62
     7
 10
96.2976898223
 20
116.2562520194
 30
0.0
 40
5.500000000000004
 50
317.1783177564
 51
54.2608295227
  0
ARC
  5
84
  8
0
  6
CONTINUOUS
 62
     7
 10
100.6985259824
 20
112.1779385086
 30
0.0
 40
0.5000000000000084
 50
137.1783177564
 51
222.8216822436
  0
LINE
  5
85
  8
0
  6
CONTINUOUS
 62
     7
 10
101.5008802682
 20
110.5765333536
 30
0.0
 11
100.3317910403
 21
111.8380786988
 31
0.0
  0
ARC
  5
86
  8
0
  6
CONTINUOUS
 62
     7
 10
102.2343537696
 20
111.2562520194
 30
0.0
 40
1.000000000000007
 50
222.8216822436
 51
270.0
  0
LINE
  5
87
  8
0
  6
CONTINUOUS
 62
     7
 10
102.2343526751
 20
110.2562524515
 30
0.0
 11
103.6015379399
 21
110.2562524515
 31
0.0
  0
ARC
  5
88
  8
0
  6
CONTINUOUS
 62
     7
 10
103.6015373996
 20
111.2562520194
 30
0.0
 40
1.000000000000008
 50
270.0
 51
330.0
  0
LINE
  5
89
  8
0
  6
CONTINUOUS
 62
     7
 10
104.4675636261
 20
110.7562516022
 30
0.0
 11
111.9137148529
 21
123.6533668029
 31
0.0
  0
ARC
  5
8A
  8
0
  6
CONTINUOUS
 62
     7
 10
111.0476898223
 20
124.1533663364
 30
0.0
 40
1.000000000000001
 50
330.0
 51
0.0
  0
LINE
  5
8B
  8
0
  6
CONTINUOUS
 62
     7
 10
112.0476911932
 20
124.1533659535
 30
0.0
 11
112.0476911932
 21
132.4562538552
 31
0.0
  0
ARC
  5
8C
  8
0
  6
CONTINUOUS
 62
     7
 10
111.0476898223
 20
132.4562520194
 30
0.0
 40
1.0
 50
0.0
 51
90.0
  0
LINE
  5
8D
  8
0
  6
CONTINUOUS
 62
     7
 10
111.0476891666
 20
133.4562521565
 30
0.0
 11
81.5476889878
 21
133.4562521565
 31
0.0
  0
ARC
  5
8E
  8
0
  6
CONTINUOUS
 62
     7
 10
81.5476898223
 20
132.4562520194
 30
0.0
 40
1.0
 50
90.0
 51
180.0
  0
LINE
  5
8F
  8
0
  6
CONTINUOUS
 62
     7
 10
80.5476869613
 20
132.4562538552
 30
0.0
 11
80.5476869613
 21
124.1533659535
 31
0.0
  0
ARC
  5
90
  8
0
  6
CONTINUOUS
 62
     7
 10
81.5476898223
 20
124.1533663364
 30
0.0
 40
1.000000000000001
 50
180.0
 51
210.0
  0
LINE
  5
91
  8
0
  6
CONTINUOUS
 62
     7
 10
80.6816633016
 20
123.6533668029
 30
0.0
 11
88.1278182536
 21
110.7562516022
 31
0.0
  0
ARC
  5
92
  8
0
  6
CONTINUOUS
 62
     7
 10
88.993842245
 20
111.2562520194
 30
0.0
 40
1.000000000000008
 50
210.0
 51
270.0
  0
LINE
  5
93
  8
0
  6
CONTINUOUS
 62
     7
 10
88.9938439399
 20
110.2562524515
 30
0.0
 11
90.3610254794
 21
110.2562524515
 31
0.0
  0
ARC
  5
94
  8
0
  6
CONTINUOUS
 62
     7
 10
90.361025875
 20
111.2562520194
 30
0.0
 40
1.000000000000007
 50
270.0
 51
317.1783177564
  0
LINE
  5
95
  8
0
  6
CONTINUOUS
 62
     7
 10
92.2635908395
 20
111.8380786988
 30
0.0
 11
91.0944978863
 21
110.5765333536
 31
0.0
  0
ARC
  5
96
  8
0
  6
CONTINUOUS
 62
     7
 10
91.8968536622
 20
112.1779385086
 30
0.0
 40
0.5000000000000084
 50
317.1783177564
 51
42.8216822436
  0
ARC
  5
97
  8
0
  6
CONTINUOUS
 62
     7
 10
267.4976898223
 20
106.1062520194
 30
0.0
 40
1.0
 50
0.0
 51
90.0
  0
LINE
  5
98
  8
0
  6
CONTINUOUS
 62
     7
 10
256.5476934582
 20
107.1062522146
 30
0.0
 11
267.4976925522
 21
107.1062522146
 31
0.0
  0
ARC
  5
99
  8
0
  6
CONTINUOUS
 62
     7
 10
256.5476898223
 20
106.1062520194
 30
0.0
 40
1.0
 50
90.0
 51
180.0
  0
ARC
  5
9A
  8
0
  6
CONTINUOUS
 62
     7
 10
256.5476898223
 20
100.0562520194
 30
0.0
 40
1.0
 50
180.0
 51
270.0
  0
LINE
  5
9B
  8
0
  6
CONTINUOUS
 62
     7
 10
267.4976925522
 20
99.0562519195
 30
0.0
 11
256.5476934582
 21
99.0562519195
 31
0.0
  0
ARC
  5
9C
  8
0
  6
CONTINUOUS
 62
     7
 10
267.4976898223
 20
100.0562520194
 30
0.0
 40
1.0
 50
270.0
 51
0.0
  0
LINE
  5
9D
  8
0
  6
CONTINUOUS
 62
     7
 10
268.4976871282
 20
106.1062520507
 30
0.0
 11
268.4976871282
 21
100.0562520835
 31
0.0
  0
ARC
  5
9E
  8
0
  6
CONTINUOUS
 62
     7
 10
186.0476898223
 20
108.3591377024
 30
0.0
 40
1.000000000000008
 50
0.0
 51
30.0
  0
LINE
  5
9F
  8
0
  6
CONTINUOUS
 62
     7
 10
179.4675628811
 20
121.7562515425
 30
0.0
 11
186.9137141078
 21
108.8591372731
 31
0.0
  0
ARC
  5
A0
  8
0
  6
CONTINUOUS
 62
     7
 10
178.6015373996
 20
121.2562520194
 30
0.0
 40
1.000000000000001
 50
30.0
 51
90.0
  0
ARC
  5
A1
  8
0
  6
CONTINUOUS
 62
     7
 10
163.993842245
 20
121.2562520194
 30
0.0
 40
1.0
 50
90.0
 51
150.0
  0
LINE
  5
A2
  8
0
  6
CONTINUOUS
 62
     7
 10
155.6816644192
 20
108.8591372731
 30
0.0
 11
163.1278175086
 21
121.7562515425
 31
0.0
  0
ARC
  5
A3
  8
0
  6
CONTINUOUS
 62
     7
 10
156.5476898223
 20
108.3591377024
 30
0.0
 40
1.0
 50
150.0
 51
180.0
  0
ARC
  5
A4
  8
0
  6
CONTINUOUS
 62
     7
 10
156.5476898223
 20
100.0562520194
 30
0.0
 40
1.0
 50
180.0
 51
270.0
  0
LINE
  5
A5
  8
0
  6
CONTINUOUS
 62
     7
 10
186.0476884216
 20
99.0562519195
 30
0.0
 11
156.5476901054
 21
99.0562519195
 31
0.0
  0
ARC
  5
A6
  8
0
  6
CONTINUOUS
 62
     7
 10
186.0476898223
 20
100.0562520194
 30
0.0
 40
1.0
 50
270.0
 51
0.0
  0
ARC
  5
A7
  8
0
  6
CONTINUOUS
 62
     7
 10
236.0476898223
 20
108.3591377024
 30
0.0
 40
1.000000000000001
 50
360.0
 51
30.0
  0
LINE
  5
A8
  8
0
  6
CONTINUOUS
 62
     7
 10
229.4675599009
 20
121.7562515425
 30
0.0
 11
236.9137148529
 21
108.8591372731
 31
0.0
  0
ARC
  5
A9
  8
0
  6
CONTINUOUS
 62
     7
 10
228.6015373996
 20
121.2562520194
 30
0.0
 40
1.000000000000001
 50
30.0
 51
90.0
  0
ARC
  5
AA
  8
0
  6
CONTINUOUS
 62
     7
 10
213.993842245
 20
121.2562520194
 30
0.0
 40
1.000000000000008
 50
90.0
 51
150.0
  0
LINE
  5
AB
  8
0
  6
CONTINUOUS
 62
     7
 10
205.6816633016
 20
108.8591372731
 30
0.0
 11
213.1278182536
 21
121.7562515425
 31
0.0
  0
ARC
  5
AC
  8
0
  6
CONTINUOUS
 62
     7
 10
206.5476898223
 20
108.3591377024
 30
0.0
 40
1.000000000000001
 50
150.0
 51
180.0
  0
ARC
  5
AD
  8
0
  6
CONTINUOUS
 62
     7
 10
206.5476898223
 20
100.0562520194
 30
0.0
 40
1.0
 50
180.0
 51
270.0
  0
LINE
  5
AE
  8
0
  6
CONTINUOUS
 62
     7
 10
236.0476891666
 20
99.0562519195
 30
0.0
 11
206.5476889878
 21
99.0562519195
 31
0.0
  0
ARC
  5
AF
  8
0
  6
CONTINUOUS
 62
     7
 10
236.0476898223
 20
100.0562520194
 30
0.0
 40
1.0
 50
270.0
 51
0.0
  0
LINE
  5
B0
  8
0
  6
CONTINUOUS
 62
     7
 10
250.3317932755
 20
111.8380786988
 30
0.0
 11
251.5008787781
 21
110.5765333536
 31
0.0
  0
ARC
  5
B1
  8
0
  6
CONTINUOUS
 62
     7
 10
252.2343537696
 20
111.2562520194
 30
0.0
 40
1.000000000000007
 50
222.8216822436
 51
270.0
  0
ARC
  5
B2
  8
0
  6
CONTINUOUS
 62
     7
 10
256.3976898223
 20
111.2562520194
 30
0.0
 40
1.0
 50
270.0
 51
0.0
  0
LINE
  5
B3
  8
0
  6
CONTINUOUS
 62
     7
 10
257.3976929456
 20
125.4062518614
 30
0.0
 11
257.3976929456
 21
111.2562516841
 31
0.0
  0
LINE
  5
B4
  8
0
  6
CONTINUOUS
 62
     7
 10
267.4976925522
 20
125.4062518614
 30
0.0
 11
257.3976929456
 21
125.4062518614
 31
0.0
  0
ARC
  5
B5
  8
0
  6
CONTINUOUS
 62
     7
 10
267.4976898223
 20
126.4062520194
 30
0.0
 40
1.0
 50
270.0
 51
0.0
  0
LINE
  5
B6
  8
0
  6
CONTINUOUS
 62
     7
 10
268.4976871282
 20
132.4562538552
 30
0.0
 11
268.4976871282
 21
126.4062520253
 31
0.0
  0
ARC
  5
B7
  8
0
  6
CONTINUOUS
 62
     7
 10
267.4976898223
 20
132.4562520194
 30
0.0
 40
1.0
 50
0.0
 51
90.0
  0
LINE
  5
B8
  8
0
  6
CONTINUOUS
 62
     7
 10
231.5476874977
 20
133.4562521565
 30
0.0
 11
267.4976925522
 21
133.4562521565
 31
0.0
  0
ARC
  5
B9
  8
0
  6
CONTINUOUS
 62
     7
 10
231.5476898223
 20
132.4562520194
 30
0.0
 40
1.0
 50
90.0
 51
180.0
  0
ARC
  5
BA
  8
0
  6
CONTINUOUS
 62
     7
 10
231.5476898223
 20
124.1533663364
 30
0.0
 40
1.000000000000028
 50
180.0
 51
210.0
  0
LINE
  5
BB
  8
0
  6
CONTINUOUS
 62
     7
 10
238.1278167635
 20
110.7562516022
 30
0.0
 11
230.6816618114
 21
123.6533668029
 31
0.0
  0
ARC
  5
BC
  8
0
  6
CONTINUOUS
 62
     7
 10
238.993842245
 20
111.2562520194
 30
0.0
 40
1.000000000000008
 50
210.0
 51
270.0
  0
ARC
  5
BD
  8
0
  6
CONTINUOUS
 62
     7
 10
240.361025875
 20
111.2562520194
 30
0.0
 40
1.000000000000007
 50
270.0
 51
317.1783177564
  0
LINE
  5
BE
  8
0
  6
CONTINUOUS
 62
     7
 10
241.0944963962
 20
110.5765333536
 30
0.0
 11
242.2635893494
 21
111.8380786988
 31
0.0
  0
ARC
  5
BF
  8
0
  6
CONTINUOUS
 62
     7
 10
241.8968536622
 20
112.1779385086
 30
0.0
 40
0.5000000000000189
 50
317.1783177564
 51
42.8216822436
  0
ARC
  5
C0
  8
0
  6
CONTINUOUS
 62
     7
 10
246.2976898223
 20
116.2562520194
 30
0.0
 40
5.500000000000004
 50
125.7391704773
 51
222.8216822436
  0
ARC
  5
C1
  8
0
  6
CONTINUOUS
 62
     7
 10
243.3772085276
 20
120.3146740043
 30
0.0
 40
0.5000000000000164
 50
30.0
 51
125.7391704773
  0
LINE
  5
C2
  8
0
  6
CONTINUOUS
 62
     7
 10
244.8135580092
 20
118.8268490273
 30
0.0
 11
243.8102181226
 21
120.5646745997
 31
0.0
  0
ARC
  5
C3
  8
0
  6
CONTINUOUS
 62
     7
 10
244.6403498925
 20
118.7268489831
 30
0.0
 40
0.2000000000000087
 50
303.8547243789
 51
30.0
  0
ARC
  5
C4
  8
0
  6
CONTINUOUS
 62
     7
 10
246.2976898223
 20
116.2562520194
 30
0.0
 40
2.774999999999998
 50
123.8547243789
 51
235.150095421
  0
ARC
  5
C5
  8
0
  6
CONTINUOUS
 62
     7
 10
244.5976898223
 20
113.8148128946
 30
0.0
 40
0.2000000000000171
 50
0.0
 51
55.150095421
  0
LINE
  5
C6
  8
0
  6
CONTINUOUS
 62
     7
 10
244.7976882726
 20
113.2562529433
 30
0.0
 11
244.7976882726
 21
113.8148136574
 31
0.0
  0
ARC
  5
C7
  8
0
  6
CONTINUOUS
 62
     7
 10
244.9976898223
 20
113.2562520194
 30
0.0
 40
0.2000000000000028
 50
180.0
 51
270.0
  0
LINE
  5
C8
  8
0
  6
CONTINUOUS
 62
     7
 10
247.5976909667
 20
113.0562514204
 30
0.0
 11
244.9976916581
 21
113.0562514204
 31
0.0
  0
ARC
  5
C9
  8
0
  6
CONTINUOUS
 62
     7
 10
247.5976898223
 20
113.2562520194
 30
0.0
 40
0.2000000000000171
 50
270.0
 51
0.0
  0
LINE
  5
CA
  8
0
  6
CONTINUOUS
 62
     7
 10
247.7976869017
 20
113.8148136574
 30
0.0
 11
247.7976869017
 21
113.2562529433
 31
0.0
  0
ARC
  5
CB
  8
0
  6
CONTINUOUS
 62
     7
 10
247.9976898223
 20
113.8148128946
 30
0.0
 40
0.2000000000000003
 50
124.849904579
 51
180.0
  0
ARC
  5
CC
  8
0
  6
CONTINUOUS
 62
     7
 10
246.2976898223
 20
116.2562520194
 30
0.0
 40
2.774999999999998
 50
304.849904579
 51
56.1452756211
  0
ARC
  5
CD
  8
0
  6
CONTINUOUS
 62
     7
 10
247.955029752
 20
118.7268489831
 30
0.0
 40
0.2000000000000268
 50
150.0
 51
236.1452756211
  0
LINE
  5
CE
  8
0
  6
CONTINUOUS
 62
     7
 10
248.7851570517
 20
120.5646745997
 30
0.0
 11
247.7818246156
 21
118.8268490273
 31
0.0
  0
ARC
  5
CF
  8
0
  6
CONTINUOUS
 62
     7
 10
249.218171117
 20
120.3146740043
 30
0.0
 40
0.4999999999999918
 50
54.2608295227
 51
150.0
  0
ARC
  5
D0
  8
0
  6
CONTINUOUS
 62
     7
 10
246.2976898223
 20
116.2562520194
 30
0.0
 40
5.500000000000014
 50
317.1783177564
 51
54.2608295227
  0
ARC
  5
D1
  8
0
  6
CONTINUOUS
 62
     7
 10
250.6985259824
 20
112.1779385086
 30
0.0
 40
0.4999999999999981
 50
137.1783177564
 51
222.8216822436
  0
LINE
  5
D2
  8
0
  6
CONTINUOUS
 62
     7
 10
200.3317888051
 20
111.8380786988
 30
0.0
 11
201.5008817583
 21
110.5765333536
 31
0.0
  0
ARC
  5
D3
  8
0
  6
CONTINUOUS
 62
     7
 10
202.2343537696
 20
111.2562520194
 30
0.0
 40
1.000000000000007
 50
222.8216822436
 51
270.0
  0
ARC
  5
D4
  8
0
  6
CONTINUOUS
 62
     7
 10
203.6015373996
 20
111.2562520194
 30
0.0
 40
1.000000000000008
 50
270.0
 51
330.0
  0
LINE
  5
D5
  8
0
  6
CONTINUOUS
 62
     7
 10
211.913716343
 20
123.6533668029
 30
0.0
 11
204.467561391
 21
110.7562516022
 31
0.0
  0
ARC
  5
D6
  8
0
  6
CONTINUOUS
 62
     7
 10
211.0476898223
 20
124.1533663364
 30
0.0
 40
1.000000000000001
 50
330.0
 51
0.0
  0
ARC
  5
D7
  8
0
  6
CONTINUOUS
 62
     7
 10
211.0476898223
 20
132.4562520194
 30
0.0
 40
1.0
 50
0.0
 51
90.0
  0
LINE
  5
D8
  8
0
  6
CONTINUOUS
 62
     7
 10
181.5476904779
 20
133.4562521565
 30
0.0
 11
211.0476906568
 21
133.4562521565
 31
0.0
  0
ARC
  5
D9
  8
0
  6
CONTINUOUS
 62
     7
 10
181.5476898223
 20
132.4562520194
 30
0.0
 40
1.0
 50
90.0
 51
180.0
  0
ARC
  5
DA
  8
0
  6
CONTINUOUS
 62
     7
 10
181.5476898223
 20
124.1533663364
 30
0.0
 40
1.000000000000001
 50
180.0
 51
210.0
  0
LINE
  5
DB
  8
0
  6
CONTINUOUS
 62
     7
 10
188.1278160184
 20
110.7562516022
 30
0.0
 11
180.6816647917
 21
123.6533668029
 31
0.0
  0
ARC
  5
DC
  8
0
  6
CONTINUOUS
 62
     7
 10
188.993842245
 20
111.2562520194
 30
0.0
 40
1.000000000000008
 50
210.0
 51
270.0
  0
ARC
  5
DD
  8
0
  6
CONTINUOUS
 62
     7
 10
190.361025875
 20
111.2562520194
 30
0.0
 40
1.000000000000007
 50
270.0
 51
317.1783177564
  0
LINE
  5
DE
  8
0
  6
CONTINUOUS
 62
     7
 10
191.0944993764
 20
110.5765333536
 30
0.0
 11
192.2635886043
 21
111.8380786988
 31
0.0
  0
ARC
  5
DF
  8
0
  6
CONTINUOUS
 62
     7
 10
191.8968536622
 20
112.1779385086
 30
0.0
 40
0.4999999999999981
 50
317.1783177564
 51
42.8216822436
  0
ARC
  5
E0
  8
0
  6
CONTINUOUS
 62
     7
 10
196.2976898223
 20
116.2562520194
 30
0.0
 40
5.500000000000014
 50
125.7391704773
 51
222.8216822436
  0
ARC
  5
E1
  8
0
  6
CONTINUOUS
 62
     7
 10
193.3772085276
 20
120.3146740043
 30
0.0
 40
0.4999999999999997
 50
30.0
 51
125.7391704773
  0
LINE
  5
E2
  8
0
  6
CONTINUOUS
 62
     7
 10
194.8135535389
 20
118.8268490273
 30
0.0
 11
193.8102211028
 21
120.5646745997
 31
0.0
  0
ARC
  5
E3
  8
0
  6
CONTINUOUS
 62
     7
 10
194.6403498925
 20
118.7268489831
 30
0.0
 40
0.2000000000000109
 50
303.8547243789
 51
30.0
  0
ARC
  5
E4
  8
0
  6
CONTINUOUS
 62
     7
 10
196.2976898223
 20
116.2562520194
 30
0.0
 40
2.775000000000015
 50
123.8547243789
 51
235.150095421
  0
ARC
  5
E5
  8
0
  6
CONTINUOUS
 62
     7
 10
194.5976898223
 20
113.8148128946
 30
0.0
 40
0.2000000000000455
 50
0.0
 51
55.150095421
  0
LINE
  5
E6
  8
0
  6
CONTINUOUS
 62
     7
 10
194.7976912528
 20
113.2562529433
 30
0.0
 11
194.7976912528
 21
113.8148136574
 31
0.0
  0
ARC
  5
E7
  8
0
  6
CONTINUOUS
 62
     7
 10
194.9976898223
 20
113.2562520194
 30
0.0
 40
0.2000000000000028
 50
180.0
 51
270.0
  0
LINE
  5
E8
  8
0
  6
CONTINUOUS
 62
     7
 10
197.5976902216
 20
113.0562514204
 30
0.0
 11
194.9976909131
 21
113.0562514204
 31
0.0
  0
ARC
  5
E9
  8
0
  6
CONTINUOUS
 62
     7
 10
197.5976898223
 20
113.2562520194
 30
0.0
 40
0.2000000000000455
 50
270.0
 51
0.0
  0
LINE
  5
EA
  8
0
  6
CONTINUOUS
 62
     7
 10
197.7976898819
 20
113.8148136574
 30
0.0
 11
197.7976898819
 21
113.2562529433
 31
0.0
  0
ARC
  5
EB
  8
0
  6
CONTINUOUS
 62
     7
 10
197.9976898223
 20
113.8148128946
 30
0.0
 40
0.2000000000000003
 50
124.849904579
 51
180.0
  0
ARC
  5
EC
  8
0
  6
CONTINUOUS
 62
     7
 10
196.2976898223
 20
116.2562520194
 30
0.0
 40
2.774999999999997
 50
304.849904579
 51
56.1452756211
  0
ARC
  5
ED
  8
0
  6
CONTINUOUS
 62
     7
 10
197.955029752
 20
118.7268489831
 30
0.0
 40
0.1999999999999675
 50
150.0
 51
236.1452756211
  0
LINE
  5
EE
  8
0
  6
CONTINUOUS
 62
     7
 10
198.7851600319
 20
120.5646745997
 30
0.0
 11
197.7818238705
 21
118.8268490273
 31
0.0
  0
ARC
  5
EF
  8
0
  6
CONTINUOUS
 62
     7
 10
199.218171117
 20
120.3146740043
 30
0.0
 40
0.500000000000041
 50
54.2608295227
 51
150.0
  0
ARC
  5
F0
  8
0
  6
CONTINUOUS
 62
     7
 10
196.2976898223
 20
116.2562520194
 30
0.0
 40
5.499999999999993
 50
317.1783177564
 51
54.2608295227
  0
ARC
  5
F1
  8
0
  6
CONTINUOUS
 62
     7
 10
200.6985259824
 20
112.1779385086
 30
0.0
 40
0.5000000000000189
 50
137.1783177564
 51
222.8216822436
  0
LINE
  5
F2
  8
0
  6
CONTINUOUS
 62
     7
 10
150.331789457
 20
111.8380786988
 30
0.0
 11
151.7976897925
 21
110.2562524515
 31
0.0
  0
ARC
  5
F3
  8
0
  6
CONTINUOUS
 62
     7
 10
153.6015373996
 20
111.2562520194
 30
0.0
 40
1.0
 50
270.0
 51
330.0
  0
LINE
  5
F4
  8
0
  6
CONTINUOUS
 62
     7
 10
161.913715598
 20
123.6533668029
 30
0.0
 11
154.4675625086
 21
110.7562516022
 31
0.0
  0
ARC
  5
F5
  8
0
  6
CONTINUOUS
 62
     7
 10
161.0476898223
 20
124.1533663364
 30
0.0
 40
1.0
 50
330.0
 51
0.0
  0
ARC
  5
F6
  8
0
  6
CONTINUOUS
 62
     7
 10
161.0476898223
 20
132.4562520194
 30
0.0
 40
1.0
 50
0.0
 51
90.0
  0
LINE
  5
F7
  8
0
  6
CONTINUOUS
 62
     7
 10
131.5476897329
 20
133.4562521565
 30
0.0
 11
161.0476899117
 21
133.4562521565
 31
0.0
  0
ARC
  5
F8
  8
0
  6
CONTINUOUS
 62
     7
 10
131.5476898223
 20
132.4562520194
 30
0.0
 40
1.0
 50
90.0
 51
180.0
  0
LINE
  5
F9
  8
0
  6
CONTINUOUS
 62
     7
 10
130.547689569
 20
132.4562538552
 30
0.0
 11
130.547689569
 21
124.1533659535
 31
0.0
  0
ARC
  5
FA
  8
0
  6
CONTINUOUS
 62
     7
 10
131.5476898223
 20
124.1533663364
 30
0.0
 40
1.000000000000001
 50
180.0
 51
210.0
  0
LINE
  5
FB
  8
0
  6
CONTINUOUS
 62
     7
 10
130.6816640466
 20
123.6533668029
 30
0.0
 11
138.127817136
 21
110.7562516022
 31
0.0
  0
ARC
  5
FC
  8
0
  6
CONTINUOUS
 62
     7
 10
138.993842245
 20
111.2562520194
 30
0.0
 40
1.000000000000008
 50
210.0
 51
270.0
  0
LINE
  5
FD
  8
0
  6
CONTINUOUS
 62
     7
 10
138.9938423566
 20
110.2562524515
 30
0.0
 11
140.7976898521
 21
110.2562524515
 31
0.0
  0
LINE
  5
FE
  8
0
  6
CONTINUOUS
 62
     7
 10
142.2635901876
 20
111.8380786988
 30
0.0
 11
140.7976898521
 21
110.2562524515
 31
0.0
  0
ARC
  5
FF
  8
0
  6
CONTINUOUS
 62
     7
 10
141.8968536622
 20
112.1779385086
 30
0.0
 40
0.4999999999999981
 50
317.1783177564
 51
42.8216822436
  0
ARC
  5
100
  8
0
  6
CONTINUOUS
 62
     7
 10
146.2976898223
 20
116.2562520194
 30
0.0
 40
5.500000000000004
 50
125.7391704773
 51
222.8216822436
  0
ARC
  5
101
  8
0
  6
CONTINUOUS
 62
     7
 10
143.3772085276
 20
120.3146740043
 30
0.0
 40
0.5000000000000164
 50
30.0
 51
125.7391704773
  0
LINE
  5
102
  8
0
  6
CONTINUOUS
 62
     7
 10
143.8102212891
 20
120.5646745997
 30
0.0
 11
144.8135550057
 21
118.8268490273
 31
0.0
  0
ARC
  5
103
  8
0
  6
CONTINUOUS
 62
     7
 10
144.6403498925
 20
118.7268489831
 30
0.0
 40
0.2000000000000087
 50
303.8547243789
 51
30.0
  0
ARC
  5
104
  8
0
  6
CONTINUOUS
 62
     7
 10
146.2976898223
 20
116.2562520194
 30
0.0
 40
2.774999999999982
 50
123.8547243789
 51
235.150095421
  0
ARC
  5
105
  8
0
  6
CONTINUOUS
 62
     7
 10
144.5976898223
 20
113.8148128946
 30
0.0
 40
0.2000000000000166
 50
0.0
 51
55.150095421
  0
LINE
  5
106
  8
0
  6
CONTINUOUS
 62
     7
 10
144.7976898093
 20
113.8148136574
 30
0.0
 11
144.7976898093
 21
113.2562529433
 31
0.0
  0
ARC
  5
107
  8
0
  6
CONTINUOUS
 62
     7
 10
144.9976898223
 20
113.2562520194
 30
0.0
 40
0.2000000000000455
 50
180.0
 51
270.0
  0
LINE
  5
108
  8
0
  6
CONTINUOUS
 62
     7
 10
147.5976898258
 20
113.0562514204
 30
0.0
 11
144.9976898188
 21
113.0562514204
 31
0.0
  0
ARC
  5
109
  8
0
  6
CONTINUOUS
 62
     7
 10
147.5976898223
 20
113.2562520194
 30
0.0
 40
0.2000000000000171
 50
270.0
 51
0.0
  0
LINE
  5
10A
  8
0
  6
CONTINUOUS
 62
     7
 10
147.7976898353
 20
113.8148136574
 30
0.0
 11
147.7976898353
 21
113.2562529433
 31
0.0
  0
ARC
  5
10B
  8
0
  6
CONTINUOUS
 62
     7
 10
147.9976898223
 20
113.8148128946
 30
0.0
 40
0.2000000000000003
 50
124.849904579
 51
180.0
  0
ARC
  5
10C
  8
0
  6
CONTINUOUS
 62
     7
 10
146.2976898223
 20
116.2562520194
 30
0.0
 40
2.774999999999998
 50
304.849904579
 51
56.1452756211
  0
ARC
  5
10D
  8
0
  6
CONTINUOUS
 62
     7
 10
147.955029752
 20
118.7268489831
 30
0.0
 40
0.1999999999999992
 50
150.0
 51
236.1452756211
  0
LINE
  5
10E
  8
0
  6
CONTINUOUS
 62
     7
 10
148.7851583555
 20
120.5646745997
 30
0.0
 11
147.7818246389
 21
118.8268490273
 31
0.0
  0
ARC
  5
10F
  8
0
  6
CONTINUOUS
 62
     7
 10
149.218171117
 20
120.3146740043
 30
0.0
 40
0.5000000000000164
 50
54.2608295227
 51
150.0
  0
ARC
  5
110
  8
0
  6
CONTINUOUS
 62
     7
 10
146.2976898223
 20
116.2562520194
 30
0.0
 40
5.500000000000014
 50
317.1783177564
 51
54.2608295227
  0
ARC
  5
111
  8
0
  6
CONTINUOUS
 62
     7
 10
150.6985259824
 20
112.1779385086
 30
0.0
 40
0.4999999999999772
 50
137.1783177564
 51
222.8216822436
  0
LINE
  5
112
  8
0
  6
CONTINUOUS
 62
     7
 10
142.7976897143
 20
108.2562521237
 30
0.0
 11
142.7976897143
 21
109.556251778
 31
0.0
  0
LINE
  5
113
  8
0
  6
CONTINUOUS
 62
     7
 10
142.7976897143
 20
108.2562521237
 30
0.0
 11
139.0476900309
 21
108.2562521237
 31
0.0
  0
LINE
  5
114
  8
0
  6
CONTINUOUS
 62
     7
 10
139.0476900309
 20
108.2562521237
 30
0.0
 11
139.0476900309
 21
101.2562519076
 31
0.0
  0
LINE
  5
115
  8
0
  6
CONTINUOUS
 62
     7
 10
139.0476900309
 20
101.2562519076
 30
0.0
 11
142.2476897172
 21
101.2562519076
 31
0.0
  0
LINE
  5
116
  8
0
  6
CONTINUOUS
 62
     7
 10
142.2476897172
 20
101.2562519076
 30
0.0
 11
142.2476897172
 21
97.7562520324
 31
0.0
  0
LINE
  5
117
  8
0
  6
CONTINUOUS
 62
     7
 10
140.747689937
 20
96.2562520194
 30
0.0
 11
142.2476897172
 21
97.7562520324
 31
0.0
  0
LINE
  5
118
  8
0
  6
CONTINUOUS
 62
     7
 10
140.747689937
 20
96.2562520194
 30
0.0
 11
101.8476898938
 21
96.2562520194
 31
0.0
  0
LINE
  5
119
  8
0
  6
CONTINUOUS
 62
     7
 10
100.3476905793
 20
97.7562520324
 30
0.0
 11
101.8476898938
 21
96.2562520194
 31
0.0
  0
LINE
  5
11A
  8
0
  6
CONTINUOUS
 62
     7
 10
100.3476905793
 20
97.7562520324
 30
0.0
 11
100.3476905793
 21
101.2562519076
 31
0.0
  0
LINE
  5
11B
  8
0
  6
CONTINUOUS
 62
     7
 10
100.3476905793
 20
101.2562519076
 30
0.0
 11
103.5476888686
 21
101.2562519076
 31
0.0
  0
LINE
  5
11C
  8
0
  6
CONTINUOUS
 62
     7
 10
103.5476888686
 20
101.2562519076
 30
0.0
 11
103.5476888686
 21
108.2562521237
 31
0.0
  0
LINE
  5
11D
  8
0
  6
CONTINUOUS
 62
     7
 10
103.5476888686
 20
108.2562521237
 30
0.0
 11
99.7976887196
 21
108.2562521237
 31
0.0
  0
LINE
  5
11E
  8
0
  6
CONTINUOUS
 62
     7
 10
99.7976887196
 20
109.556251778
 30
0.0
 11
99.7976887196
 21
108.2562521237
 31
0.0
  0
ARC
  5
11F
  8
0
  6
CONTINUOUS
 62
     7
 10
99.5976898223
 20
109.5562520194
 30
0.0
 40
0.2000000000000028
 50
0.0
 51
90.0
  0
LINE
  5
120
  8
0
  6
CONTINUOUS
 62
     7
 10
92.9976890951
 20
109.7562523696
 30
0.0
 11
99.5976890594
 21
109.7562523696
 31
0.0
  0
ARC
  5
121
  8
0
  6
CONTINUOUS
 62
     7
 10
92.9976898223
 20
109.5562520194
 30
0.0
 40
0.2000000000000028
 50
90.0
 51
180.0
  0
LINE
  5
122
  8
0
  6
CONTINUOUS
 62
     7
 10
92.7976894349
 20
108.2562521237
 30
0.0
 11
92.7976894349
 21
109.556251778
 31
0.0
  0
LINE
  5
123
  8
0
  6
CONTINUOUS
 62
     7
 10
92.7976894349
 20
108.2562521237
 30
0.0
 11
89.0476892859
 21
108.2562521237
 31
0.0
  0
LINE
  5
124
  8
0
  6
CONTINUOUS
 62
     7
 10
89.0476892859
 20
108.2562521237
 30
0.0
 11
89.0476892859
 21
101.2562519076
 31
0.0
  0
LINE
  5
125
  8
0
  6
CONTINUOUS
 62
     7
 10
89.0476892859
 20
101.2562519076
 30
0.0
 11
92.2476913005
 21
101.2562519076
 31
0.0
  0
LINE
  5
126
  8
0
  6
CONTINUOUS
 62
     7
 10
92.2476913005
 20
101.2562519076
 30
0.0
 11
92.2476913005
 21
97.7562520324
 31
0.0
  0
LINE
  5
127
  8
0
  6
CONTINUOUS
 62
     7
 10
90.7476882607
 20
96.2562520194
 30
0.0
 11
92.2476913005
 21
97.7562520324
 31
0.0
  0
LINE
  5
128
  8
0
  6
CONTINUOUS
 62
     7
 10
90.7476882607
 20
96.2562520194
 30
0.0
 11
51.8476928741
 21
96.2562520194
 31
0.0
  0
LINE
  5
129
  8
0
  6
CONTINUOUS
 62
     7
 10
50.3476898342
 20
97.7562520324
 30
0.0
 11
51.8476928741
 21
96.2562520194
 31
0.0
  0
LINE
  5
12A
  8
0
  6
CONTINUOUS
 62
     7
 10
50.3476898342
 20
97.7562520324
 30
0.0
 11
50.3476898342
 21
101.2562519076
 31
0.0
  0
LINE
  5
12B
  8
0
  6
CONTINUOUS
 62
     7
 10
50.3476898342
 20
101.2562519076
 30
0.0
 11
53.5476918489
 21
101.2562519076
 31
0.0
  0
LINE
  5
12C
  8
0
  6
CONTINUOUS
 62
     7
 10
53.5476918489
 20
101.2562519076
 30
0.0
 11
53.5476918489
 21
108.2562521237
 31
0.0
  0
LINE
  5
12D
  8
0
  6
CONTINUOUS
 62
     7
 10
53.5476918489
 20
108.2562521237
 30
0.0
 11
49.7976879745
 21
108.2562521237
 31
0.0
  0
LINE
  5
12E
  8
0
  6
CONTINUOUS
 62
     7
 10
49.7976879745
 20
109.556251778
 30
0.0
 11
49.7976879745
 21
108.2562521237
 31
0.0
  0
ARC
  5
12F
  8
0
  6
CONTINUOUS
 62
     7
 10
49.5976898223
 20
109.5562520194
 30
0.0
 40
0.2000000000000028
 50
360.0
 51
90.0
  0
LINE
  5
130
  8
0
  6
CONTINUOUS
 62
     7
 10
42.9976920753
 20
109.7562523696
 30
0.0
 11
49.5976920396
 21
109.7562523696
 31
0.0
  0
ARC
  5
131
  8
0
  6
CONTINUOUS
 62
     7
 10
42.9976898223
 20
109.5562520194
 30
0.0
 40
0.2000000000000099
 50
90.0
 51
180.0
  0
LINE
  5
132
  8
0
  6
CONTINUOUS
 62
     7
 10
42.7976886898
 20
108.2562521237
 30
0.0
 11
42.7976886898
 21
109.556251778
 31
0.0
  0
LINE
  5
133
  8
0
  6
CONTINUOUS
 62
     7
 10
42.7976886898
 20
108.2562521237
 30
0.0
 11
39.0476922661
 21
108.2562521237
 31
0.0
  0
LINE
  5
134
  8
0
  6
CONTINUOUS
 62
     7
 10
39.0476922661
 20
108.2562521237
 30
0.0
 11
39.0476922661
 21
101.2562519076
 31
0.0
  0
LINE
  5
135
  8
0
  6
CONTINUOUS
 62
     7
 10
39.0476922661
 20
101.2562519076
 30
0.0
 11
42.2476868301
 21
101.2562519076
 31
0.0
  0
LINE
  5
136
  8
0
  6
CONTINUOUS
 62
     7
 10
42.2476868301
 20
101.2562519076
 30
0.0
 11
42.2476868301
 21
97.7562520324
 31
0.0
  0
LINE
  5
137
  8
0
  6
CONTINUOUS
 62
     7
 10
40.7476912409
 20
96.2562520194
 30
0.0
 11
42.2476868301
 21
97.7562520324
 31
0.0
  0
LINE
  5
138
  8
0
  6
CONTINUOUS
 62
     7
 10
40.7476912409
 20
96.2562520194
 30
0.0
 11
22.7976928621
 21
96.2562520194
 31
0.0
  0
LINE
  5
139
  8
0
  6
CONTINUOUS
 62
     7
 10
21.2976898223
 20
97.7562520324
 30
0.0
 11
22.7976928621
 21
96.2562520194
 31
0.0
  0
LINE
  5
13A
  8
0
  6
CONTINUOUS
 62
     7
 10
21.2976898223
 20
97.7562520324
 30
0.0
 11
21.2976898223
 21
110.7062516871
 31
0.0
  0
LINE
  5
13B
  8
0
  6
CONTINUOUS
 62
     7
 10
22.7976928621
 20
112.206251933
 30
0.0
 11
21.2976898223
 21
110.7062516871
 31
0.0
  0
LINE
  5
13C
  8
0
  6
CONTINUOUS
 62
     7
 10
22.7976928621
 20
112.206251933
 30
0.0
 11
26.2976925045
 21
112.206251933
 31
0.0
  0
LINE
  5
13D
  8
0
  6
CONTINUOUS
 62
     7
 10
26.2976925045
 20
112.206251933
 30
0.0
 11
26.2976925045
 21
109.006251781
 31
0.0
  0
LINE
  5
13E
  8
0
  6
CONTINUOUS
 62
     7
 10
26.2976925045
 20
109.006251781
 30
0.0
 11
33.2976917892
 21
109.006251781
 31
0.0
  0
LINE
  5
13F
  8
0
  6
CONTINUOUS
 62
     7
 10
33.2976917892
 20
109.006251781
 30
0.0
 11
33.2976917892
 21
123.5062513637
 31
0.0
  0
LINE
  5
140
  8
0
  6
CONTINUOUS
 62
     7
 10
33.2976917892
 20
123.5062513637
 30
0.0
 11
26.2976925045
 21
123.5062513637
 31
0.0
  0
LINE
  5
141
  8
0
  6
CONTINUOUS
 62
     7
 10
26.2976925045
 20
123.5062513637
 30
0.0
 11
26.2976925045
 21
120.3062512117
 31
0.0
  0
LINE
  5
142
  8
0
  6
CONTINUOUS
 62
     7
 10
26.2976925045
 20
120.3062512117
 30
0.0
 11
22.7976928621
 21
120.3062512117
 31
0.0
  0
LINE
  5
143
  8
0
  6
CONTINUOUS
 62
     7
 10
21.2976898223
 20
121.8062523889
 30
0.0
 11
22.7976928621
 21
120.3062512117
 31
0.0
  0
LINE
  5
144
  8
0
  6
CONTINUOUS
 62
     7
 10
21.2976898223
 20
121.8062523889
 30
0.0
 11
21.2976898223
 21
134.7562518108
 31
0.0
  0
LINE
  5
145
  8
0
  6
CONTINUOUS
 62
     7
 10
22.7976928621
 20
136.2562511253
 30
0.0
 11
21.2976898223
 21
134.7562518108
 31
0.0
  0
LINE
  5
146
  8
0
  6
CONTINUOUS
 62
     7
 10
22.7976928621
 20
136.2562511253
 30
0.0
 11
65.7476897508
 21
136.2562511253
 31
0.0
  0
LINE
  5
147
  8
0
  6
CONTINUOUS
 62
     7
 10
67.2476927906
 20
134.7562518108
 30
0.0
 11
65.7476897508
 21
136.2562511253
 31
0.0
  0
LINE
  5
148
  8
0
  6
CONTINUOUS
 62
     7
 10
67.2476927906
 20
134.7562518108
 30
0.0
 11
67.2476927906
 21
131.2562521684
 31
0.0
  0
LINE
  5
149
  8
0
  6
CONTINUOUS
 62
     7
 10
67.2476927906
 20
131.2562521684
 30
0.0
 11
64.047690776
 21
131.2562521684
 31
0.0
  0
LINE
  5
14A
  8
0
  6
CONTINUOUS
 62
     7
 10
64.047690776
 20
131.2562521684
 30
0.0
 11
64.047690776
 21
124.2562528837
 31
0.0
  0
LINE
  5
14B
  8
0
  6
CONTINUOUS
 62
     7
 10
64.047690776
 20
124.2562528837
 30
0.0
 11
78.5476903587
 21
124.2562528837
 31
0.0
  0
LINE
  5
14C
  8
0
  6
CONTINUOUS
 62
     7
 10
78.5476903587
 20
124.2562528837
 30
0.0
 11
78.5476903587
 21
131.2562521684
 31
0.0
  0
LINE
  5
14D
  8
0
  6
CONTINUOUS
 62
     7
 10
78.5476903587
 20
131.2562521684
 30
0.0
 11
75.3476883441
 21
131.2562521684
 31
0.0
  0
LINE
  5
14E
  8
0
  6
CONTINUOUS
 62
     7
 10
75.3476883441
 20
131.2562521684
 30
0.0
 11
75.3476883441
 21
134.7562518108
 31
0.0
  0
LINE
  5
14F
  8
0
  6
CONTINUOUS
 62
     7
 10
76.8476913839
 20
136.2562511253
 30
0.0
 11
75.3476883441
 21
134.7562518108
 31
0.0
  0
LINE
  5
150
  8
0
  6
CONTINUOUS
 62
     7
 10
76.8476913839
 20
136.2562511253
 30
0.0
 11
115.7476904958
 21
136.2562511253
 31
0.0
  0
LINE
  5
151
  8
0
  6
CONTINUOUS
 62
     7
 10
117.2476898104
 20
134.7562518108
 30
0.0
 11
115.7476904958
 21
136.2562511253
 31
0.0
  0
LINE
  5
152
  8
0
  6
CONTINUOUS
 62
     7
 10
117.2476898104
 20
134.7562518108
 30
0.0
 11
117.2476898104
 21
131.2562521684
 31
0.0
  0
LINE
  5
153
  8
0
  6
CONTINUOUS
 62
     7
 10
117.2476898104
 20
131.2562521684
 30
0.0
 11
114.047691521
 21
131.2562521684
 31
0.0
  0
LINE
  5
154
  8
0
  6
CONTINUOUS
 62
     7
 10
114.047691521
 20
131.2562521684
 30
0.0
 11
114.047691521
 21
124.2562528837
 31
0.0
  0
LINE
  5
155
  8
0
  6
CONTINUOUS
 62
     7
 10
114.047691521
 20
124.2562528837
 30
0.0
 11
128.5476892411
 21
124.2562528837
 31
0.0
  0
LINE
  5
156
  8
0
  6
CONTINUOUS
 62
     7
 10
128.5476892411
 20
124.2562528837
 30
0.0
 11
128.5476892411
 21
131.2562521684
 31
0.0
  0
LINE
  5
157
  8
0
  6
CONTINUOUS
 62
     7
 10
128.5476892411
 20
131.2562521684
 30
0.0
 11
125.3476890892
 21
131.2562521684
 31
0.0
  0
LINE
  5
158
  8
0
  6
CONTINUOUS
 62
     7
 10
125.3476890892
 20
131.2562521684
 30
0.0
 11
125.3476890892
 21
134.7562518108
 31
0.0
  0
LINE
  5
159
  8
0
  6
CONTINUOUS
 62
     7
 10
126.8476902663
 20
136.2562511253
 30
0.0
 11
125.3476890892
 21
134.7562518108
 31
0.0
  0
LINE
  5
15A
  8
0
  6
CONTINUOUS
 62
     7
 10
165.7476893782
 20
136.2562511253
 30
0.0
 11
167.2476905554
 21
134.7562518108
 31
0.0
  0
LINE
  5
15B
  8
0
  6
CONTINUOUS
 62
     7
 10
175.3476898342
 20
134.7562518108
 30
0.0
 11
176.8476891488
 21
136.2562511253
 31
0.0
  0
LINE
  5
15C
  8
0
  6
CONTINUOUS
 62
     7
 10
215.7476882607
 20
136.2562511253
 30
0.0
 11
217.2476913005
 21
134.7562518108
 31
0.0
  0
LINE
  5
15D
  8
0
  6
CONTINUOUS
 62
     7
 10
225.347686854
 20
134.7562518108
 30
0.0
 11
226.8476898938
 21
136.2562511253
 31
0.0
  0
LINE
  5
15E
  8
0
  6
CONTINUOUS
 62
     7
 10
269.7976867825
 20
136.2562511253
 30
0.0
 11
271.2976898223
 21
134.7562518108
 31
0.0
  0
LINE
  5
15F
  8
0
  6
CONTINUOUS
 62
     7
 10
271.2976898223
 20
121.8062523889
 30
0.0
 11
269.7976867825
 21
120.3062512117
 31
0.0
  0
LINE
  5
160
  8
0
  6
CONTINUOUS
 62
     7
 10
266.2976871401
 20
120.3062512117
 30
0.0
 11
269.7976867825
 21
120.3062512117
 31
0.0
  0
LINE
  5
161
  8
0
  6
CONTINUOUS
 62
     7
 10
266.2976871401
 20
123.5062513637
 30
0.0
 11
266.2976871401
 21
120.3062512117
 31
0.0
  0
LINE
  5
162
  8
0
  6
CONTINUOUS
 62
     7
 10
259.2976878553
 20
123.5062513637
 30
0.0
 11
266.2976871401
 21
123.5062513637
 31
0.0
  0
LINE
  5
163
  8
0
  6
CONTINUOUS
 62
     7
 10
259.2976878553
 20
109.006251781
 30
0.0
 11
259.2976878553
 21
123.5062513637
 31
0.0
  0
LINE
  5
164
  8
0
  6
CONTINUOUS
 62
     7
 10
266.2976871401
 20
109.006251781
 30
0.0
 11
259.2976878553
 21
109.006251781
 31
0.0
  0
LINE
  5
165
  8
0
  6
CONTINUOUS
 62
     7
 10
266.2976871401
 20
112.206251933
 30
0.0
 11
266.2976871401
 21
109.006251781
 31
0.0
  0
LINE
  5
166
  8
0
  6
CONTINUOUS
 62
     7
 10
269.7976867825
 20
112.206251933
 30
0.0
 11
266.2976871401
 21
112.206251933
 31
0.0
  0
LINE
  5
167
  8
0
  6
CONTINUOUS
 62
     7
 10
269.7976867825
 20
112.206251933
 30
0.0
 11
271.2976898223
 21
110.7062516871
 31
0.0
  0
LINE
  5
168
  8
0
  6
CONTINUOUS
 62
     7
 10
271.2976898223
 20
97.7562520324
 30
0.0
 11
269.7976867825
 21
96.2562520194
 31
0.0
  0
LINE
  5
169
  8
0
  6
CONTINUOUS
 62
     7
 10
251.8476884037
 20
96.2562520194
 30
0.0
 11
250.3476928144
 21
97.7562520324
 31
0.0
  0
LINE
  5
16A
  8
0
  6
CONTINUOUS
 62
     7
 10
249.7976909548
 20
108.2562521237
 30
0.0
 11
249.7976909548
 21
109.556251778
 31
0.0
  0
ARC
  5
16B
  8
0
  6
CONTINUOUS
 62
     7
 10
249.5976898223
 20
109.5562520194
 30
0.0
 40
0.1999999999999886
 50
0.0
 51
90.0
  0
LINE
  5
16C
  8
0
  6
CONTINUOUS
 62
     7
 10
249.5976875692
 20
109.7562523696
 30
0.0
 11
242.997687605
 21
109.7562523696
 31
0.0
  0
ARC
  5
16D
  8
0
  6
CONTINUOUS
 62
     7
 10
242.9976898223
 20
109.5562520194
 30
0.0
 40
0.2000000000000171
 50
90.0
 51
180.0
  0
LINE
  5
16E
  8
0
  6
CONTINUOUS
 62
     7
 10
242.79769167
 20
109.556251778
 30
0.0
 11
242.79769167
 21
108.2562521237
 31
0.0
  0
LINE
  5
16F
  8
0
  6
CONTINUOUS
 62
     7
 10
242.2476898104
 20
97.7562520324
 30
0.0
 11
240.7476867705
 21
96.2562520194
 31
0.0
  0
LINE
  5
170
  8
0
  6
CONTINUOUS
 62
     7
 10
201.8476913839
 20
96.2562520194
 30
0.0
 11
200.3476883441
 21
97.7562520324
 31
0.0
  0
LINE
  5
171
  8
0
  6
CONTINUOUS
 62
     7
 10
199.7976902097
 20
108.2562521237
 30
0.0
 11
199.7976902097
 21
109.556251778
 31
0.0
  0
ARC
  5
172
  8
0
  6
CONTINUOUS
 62
     7
 10
199.5976898223
 20
109.5562520194
 30
0.0
 40
0.2000000000000028
 50
0.0
 51
90.0
  0
LINE
  5
173
  8
0
  6
CONTINUOUS
 62
     7
 10
199.5976905495
 20
109.7562523696
 30
0.0
 11
192.9976905852
 21
109.7562523696
 31
0.0
  0
ARC
  5
174
  8
0
  6
CONTINUOUS
 62
     7
 10
192.9976898223
 20
109.5562520194
 30
0.0
 40
0.2000000000000028
 50
90.0
 51
180.0
  0
LINE
  5
175
  8
0
  6
CONTINUOUS
 62
     7
 10
192.797690925
 20
109.556251778
 30
0.0
 11
192.797690925
 21
108.2562521237
 31
0.0
  0
LINE
  5
176
  8
0
  6
CONTINUOUS
 62
     7
 10
192.2476890653
 20
97.7562520324
 30
0.0
 11
190.7476897508
 21
96.2562520194
 31
0.0
  0
LINE
  5
177
  8
0
  6
CONTINUOUS
 62
     7
 10
151.8476897076
 20
96.2562520194
 30
0.0
 11
150.3476899273
 21
97.7562520324
 31
0.0
  0
LINE
  5
178
  8
0
  6
CONTINUOUS
 62
     7
 10
149.7976899303
 20
108.2562521237
 30
0.0
 11
149.7976899303
 21
109.556251778
 31
0.0
  0
ARC
  5
179
  8
0
  6
CONTINUOUS
 62
     7
 10
149.5976898223
 20
109.5562520194
 30
0.0
 40
0.2000000000000028
 50
0.0
 51
90.0
  0
LINE
  5
17A
  8
0
  6
CONTINUOUS
 62
     7
 10
149.5976898044
 20
109.7562523696
 30
0.0
 11
142.9976898402
 21
109.7562523696
 31
0.0
  0
ARC
  5
17B
  8
0
  6
CONTINUOUS
 62
     7
 10
142.9976898223
 20
109.5562520194
 30
0.0
 40
0.2000000000000028
 50
90.0
 51
180.0
  0
LINE
  5
17C
  8
0
  6
CONTINUOUS
 62
     7
 10
128.6015383124
 20
122.2562525558
 30
0.0
 11
113.9938424498
 21
122.2562525558
 31
0.0
  0
LINE
  5
17D
  8
0
  6
CONTINUOUS
 62
     7
 10
165.7476893782
 20
136.2562511253
 30
0.0
 11
126.8476902663
 21
136.2562511253
 31
0.0
  0
LINE
  5
17E
  8
0
  6
CONTINUOUS
 62
     7
 10
162.0476900756
 20
132.4562538552
 30
0.0
 11
162.0476900756
 21
124.1533659535
 31
0.0
  0
LINE
  5
17F
  8
0
  6
CONTINUOUS
 62
     7
 10
163.9938413322
 20
122.2562525558
 30
0.0
 11
178.6015371948
 21
122.2562525558
 31
0.0
  0
LINE
  5
180
  8
0
  6
CONTINUOUS
 62
     7
 10
212.0476926833
 20
132.4562538552
 30
0.0
 11
212.0476926833
 21
124.1533659535
 31
0.0
  0
LINE
  5
181
  8
0
  6
CONTINUOUS
 62
     7
 10
213.9938439399
 20
122.2562525558
 30
0.0
 11
228.6015342146
 21
122.2562525558
 31
0.0
  0
LINE
  5
182
  8
0
  6
CONTINUOUS
 62
     7
 10
255.5476914316
 20
100.0562520835
 30
0.0
 11
255.5476914316
 21
106.1062520507
 31
0.0
  0
LINE
  5
183
  8
0
  6
CONTINUOUS
 62
     7
 10
256.397690919
 20
110.2562524515
 30
0.0
 11
252.2343511849
 21
110.2562524515
 31
0.0
  0
LINE
  5
184
  8
0
  6
CONTINUOUS
 62
     7
 10
205.5476906866
 20
100.0562520835
 30
0.0
 11
205.5476906866
 21
108.3591381225
 31
0.0
  0
LINE
  5
185
  8
0
  6
CONTINUOUS
 62
     7
 10
190.3610269695
 20
110.2562524515
 30
0.0
 11
188.9938417047
 21
110.2562524515
 31
0.0
  0
LINE
  5
186
  8
0
  6
CONTINUOUS
 62
     7
 10
155.5476899415
 20
100.0562520835
 30
0.0
 11
155.5476899415
 21
108.3591381225
 31
0.0
  0
LINE
  5
187
  8
0
  6
CONTINUOUS
 62
     7
 10
153.601537288
 20
110.2562524515
 30
0.0
 11
151.7976897925
 21
110.2562524515
 31
0.0
  0
LINE
  5
188
  8
0
  6
CONTINUOUS
 62
     7
 10
149.7976899303
 20
108.2562521237
 30
0.0
 11
153.5476896137
 21
108.2562521237
 31
0.0
  0
LINE
  5
189
  8
0
  6
CONTINUOUS
 62
     7
 10
153.5476896137
 20
108.2562521237
 30
0.0
 11
153.5476896137
 21
101.2562519076
 31
0.0
  0
LINE
  5
18A
  8
0
  6
CONTINUOUS
 62
     7
 10
153.5476896137
 20
101.2562519076
 30
0.0
 11
150.3476899273
 21
101.2562519076
 31
0.0
  0
LINE
  5
18B
  8
0
  6
CONTINUOUS
 62
     7
 10
150.3476899273
 20
101.2562519076
 30
0.0
 11
150.3476899273
 21
97.7562520324
 31
0.0
  0
LINE
  5
18C
  8
0
  6
CONTINUOUS
 62
     7
 10
151.8476897076
 20
96.2562520194
 30
0.0
 11
190.7476897508
 21
96.2562520194
 31
0.0
  0
LINE
  5
18D
  8
0
  6
CONTINUOUS
 62
     7
 10
192.2476890653
 20
97.7562520324
 30
0.0
 11
192.2476890653
 21
101.2562519076
 31
0.0
  0
LINE
  5
18E
  8
0
  6
CONTINUOUS
 62
     7
 10
192.2476890653
 20
101.2562519076
 30
0.0
 11
189.047690776
 21
101.2562519076
 31
0.0
  0
LINE
  5
18F
  8
0
  6
CONTINUOUS
 62
     7
 10
189.047690776
 20
101.2562519076
 30
0.0
 11
189.047690776
 21
108.2562521237
 31
0.0
  0
LINE
  5
190
  8
0
  6
CONTINUOUS
 62
     7
 10
189.047690776
 20
108.2562521237
 30
0.0
 11
192.797690925
 21
108.2562521237
 31
0.0
  0
LINE
  5
191
  8
0
  6
CONTINUOUS
 62
     7
 10
203.5476903587
 20
108.2562521237
 30
0.0
 11
203.5476903587
 21
101.2562519076
 31
0.0
  0
LINE
  5
192
  8
0
  6
CONTINUOUS
 62
     7
 10
203.5476903587
 20
101.2562519076
 30
0.0
 11
200.3476883441
 21
101.2562519076
 31
0.0
  0
LINE
  5
193
  8
0
  6
CONTINUOUS
 62
     7
 10
200.3476883441
 20
101.2562519076
 30
0.0
 11
200.3476883441
 21
97.7562520324
 31
0.0
  0
LINE
  5
194
  8
0
  6
CONTINUOUS
 62
     7
 10
201.8476913839
 20
96.2562520194
 30
0.0
 11
240.7476867705
 21
96.2562520194
 31
0.0
  0
LINE
  5
195
  8
0
  6
CONTINUOUS
 62
     7
 10
242.2476898104
 20
97.7562520324
 30
0.0
 11
242.2476898104
 21
101.2562519076
 31
0.0
  0
LINE
  5
196
  8
0
  6
CONTINUOUS
 62
     7
 10
242.2476898104
 20
101.2562519076
 30
0.0
 11
239.0476877957
 21
101.2562519076
 31
0.0
  0
LINE
  5
197
  8
0
  6
CONTINUOUS
 62
     7
 10
239.0476877957
 20
101.2562519076
 30
0.0
 11
239.0476877957
 21
108.2562521237
 31
0.0
  0
LINE
  5
198
  8
0
  6
CONTINUOUS
 62
     7
 10
239.0476877957
 20
108.2562521237
 30
0.0
 11
242.79769167
 21
108.2562521237
 31
0.0
  0
LINE
  5
199
  8
0
  6
CONTINUOUS
 62
     7
 10
253.5476873785
 20
108.2562521237
 30
0.0
 11
253.5476873785
 21
101.2562519076
 31
0.0
  0
LINE
  5
19A
  8
0
  6
CONTINUOUS
 62
     7
 10
253.5476873785
 20
101.2562519076
 30
0.0
 11
250.3476928144
 21
101.2562519076
 31
0.0
  0
LINE
  5
19B
  8
0
  6
CONTINUOUS
 62
     7
 10
250.3476928144
 20
101.2562519076
 30
0.0
 11
250.3476928144
 21
97.7562520324
 31
0.0
  0
LINE
  5
19C
  8
0
  6
CONTINUOUS
 62
     7
 10
251.8476884037
 20
96.2562520194
 30
0.0
 11
269.7976867825
 21
96.2562520194
 31
0.0
  0
LINE
  5
19D
  8
0
  6
CONTINUOUS
 62
     7
 10
271.2976898223
 20
97.7562520324
 30
0.0
 11
271.2976898223
 21
110.7062516871
 31
0.0
  0
LINE
  5
19E
  8
0
  6
CONTINUOUS
 62
     7
 10
269.7976867825
 20
136.2562511253
 30
0.0
 11
226.8476898938
 21
136.2562511253
 31
0.0
  0
LINE
  5
19F
  8
0
  6
CONTINUOUS
 62
     7
 10
225.347686854
 20
134.7562518108
 30
0.0
 11
225.347686854
 21
131.2562521684
 31
0.0
  0
LINE
  5
1A0
  8
0
  6
CONTINUOUS
 62
     7
 10
225.347686854
 20
131.2562521684
 30
0.0
 11
228.5476888686
 21
131.2562521684
 31
0.0
  0
LINE
  5
1A1
  8
0
  6
CONTINUOUS
 62
     7
 10
228.5476888686
 20
131.2562521684
 30
0.0
 11
228.5476888686
 21
124.2562528837
 31
0.0
  0
LINE
  5
1A2
  8
0
  6
CONTINUOUS
 62
     7
 10
228.5476888686
 20
124.2562528837
 30
0.0
 11
214.0476892859
 21
124.2562528837
 31
0.0
  0
LINE
  5
1A3
  8
0
  6
CONTINUOUS
 62
     7
 10
214.0476892859
 20
124.2562528837
 30
0.0
 11
214.0476892859
 21
131.2562521684
 31
0.0
  0
LINE
  5
1A4
  8
0
  6
CONTINUOUS
 62
     7
 10
214.0476892859
 20
131.2562521684
 30
0.0
 11
217.2476913005
 21
131.2562521684
 31
0.0
  0
LINE
  5
1A5
  8
0
  6
CONTINUOUS
 62
     7
 10
217.2476913005
 20
131.2562521684
 30
0.0
 11
217.2476913005
 21
134.7562518108
 31
0.0
  0
LINE
  5
1A6
  8
0
  6
CONTINUOUS
 62
     7
 10
215.7476882607
 20
136.2562511253
 30
0.0
 11
176.8476891488
 21
136.2562511253
 31
0.0
  0
LINE
  5
1A7
  8
0
  6
CONTINUOUS
 62
     7
 10
175.3476898342
 20
134.7562518108
 30
0.0
 11
175.3476898342
 21
131.2562521684
 31
0.0
  0
LINE
  5
1A8
  8
0
  6
CONTINUOUS
 62
     7
 10
175.3476898342
 20
131.2562521684
 30
0.0
 11
178.5476881236
 21
131.2562521684
 31
0.0
  0
LINE
  5
1A9
  8
0
  6
CONTINUOUS
 62
     7
 10
178.5476881236
 20
131.2562521684
 30
0.0
 11
178.5476881236
 21
124.2562528837
 31
0.0
  0
LINE
  5
1AA
  8
0
  6
CONTINUOUS
 62
     7
 10
178.5476881236
 20
124.2562528837
 30
0.0
 11
164.0476904034
 21
124.2562528837
 31
0.0
  0
LINE
  5
1AB
  8
0
  6
CONTINUOUS
 62
     7
 10
164.0476904034
 20
124.2562528837
 30
0.0
 11
164.0476904034
 21
131.2562521684
 31
0.0
  0
LINE
  5
1AC
  8
0
  6
CONTINUOUS
 62
     7
 10
164.0476904034
 20
131.2562521684
 30
0.0
 11
167.2476905554
 21
131.2562521684
 31
0.0
  0
LINE
  5
1AD
  8
0
  6
CONTINUOUS
 62
     7
 10
167.2476905554
 20
131.2562521684
 30
0.0
 11
167.2476905554
 21
134.7562518108
 31
0.0
  0
LINE
  5
1AE
  8
0
  6
CONTINUOUS
 62
     7
 10
271.2976898223
 20
121.8062523889
 30
0.0
 11
271.2976898223
 21
134.7562518108
 31
0.0
  0
LINE
  5
1AF
  8
0
  6
CONTINUOUS
 62
     7
 10
180.5476884514
 20
124.1533659535
 30
0.0
 11
180.5476884514
 21
132.4562538552
 31
0.0
  0
LINE
  5
1B0
  8
0
  6
CONTINUOUS
 62
     7
 10
187.0476904481
 20
108.3591381225
 30
0.0
 11
187.0476904481
 21
100.0562520835
 31
0.0
  0
LINE
  5
1B1
  8
0
  6
CONTINUOUS
 62
     7
 10
230.5476929217
 20
124.1533659535
 30
0.0
 11
230.5476929217
 21
132.4562538552
 31
0.0
  0
LINE
  5
1B2
  8
0
  6
CONTINUOUS
 62
     7
 10
237.0476911932
 20
108.3591381225
 30
0.0
 11
237.0476911932
 21
100.0562520835
 31
0.0
  0
LINE
  5
1B3
  8
0
  6
CONTINUOUS
 62
     7
 10
240.3610239893
 20
110.2562524515
 30
0.0
 11
238.9938424498
 21
110.2562524515
 31
0.0
  0
LINE
  5
1B4
  8
0
  6
CONTINUOUS
 62
     7
 10
203.6015357047
 20
110.2562524515
 30
0.0
 11
202.2343541652
 21
110.2562524515
 31
0.0
  0
LINE
  5
1B5
  8
0
  6
CONTINUOUS
 62
     7
 10
249.7976909548
 20
108.2562521237
 30
0.0
 11
253.5476873785
 21
108.2562521237
 31
0.0
  0
LINE
  5
1B6
  8
0
  6
CONTINUOUS
 62
     7
 10
199.7976902097
 20
108.2562521237
 30
0.0
 11
203.5476903587
 21
108.2562521237
 31
0.0
  0
ENDSEC
  0
EOF
